  0
SECTION
  2
HEADER
  9
$ACADVER
  1
AC1015
  9
$ACADMAINTVER
 70
     6
  9
$DWGCODEPAGE
  3
ANSI_1252
  9
$INSBASE
 10
0.0
 20
0.0
 30
0.0
  9
$EXTMIN
 10
0.0
 20
0.0
 30
0.0
  9
$EXTMAX
 10
841.0
 20
594.0
 30
0.0
  9
$LIMMIN
 10
0.0
 20
0.0
  9
$LIMMAX
 10
841.0
 20
594.0
  9
$ORTHOMODE
 70
     0
  9
$REGENMODE
 70
     1
  9
$FILLMODE
 70
     1
  9
$QTEXTMODE
 70
     0
  9
$MIRRTEXT
 70
     1
  9
$LTSCALE
 40
1.0
  9
$ATTMODE
 70
     1
  9
$TEXTSIZE
 40
3.5
  9
$TRACEWID
 40
1.0
  9
$TEXTSTYLE
  7
Standard
  9
$CLAYER
  8
0
  9
$CELTYPE
  6
ByLayer
  9
$CECOLOR
 62
   256
  9
$CELTSCALE
 40
1.0
  9
$DISPSILH
 70
     0
  9
$DIMSCALE
 40
1.0
  9
$DIMASZ
 40
6.0
  9
$DIMEXO
 40
1.0
  9
$DIMDLI
 40
3.75
  9
$DIMRND
 40
0.0
  9
$DIMDLE
 40
0.0
  9
$DIMEXE
 40
1.0
  9
$DIMTP
 40
0.0
  9
$DIMTM
 40
0.0
  9
$DIMTXT
 40
3.5
  9
$DIMCEN
 40
2.5
  9
$DIMTSZ
 40
0.0
  9
$DIMTOL
 70
     0
  9
$DIMLIM
 70
     0
  9
$DIMTIH
 70
     1
  9
$DIMTOH
 70
     1
  9
$DIMSE1
 70
     0
  9
$DIMSE2
 70
     0
  9
$DIMTAD
 70
     1
  9
$DIMZIN
 70
     0
  9
$DIMBLK
  1

  9
$DIMASO
 70
     1
  9
$DIMSHO
 70
     1
  9
$DIMPOST
  1

  9
$DIMAPOST
  1

  9
$DIMALT
 70
     0
  9
$DIMALTD
 70
     3
  9
$DIMALTF
 40
0.0393700787
  9
$DIMLFAC
 40
1.0
  9
$DIMTOFL
 70
     1
  9
$DIMTVP
 40
0.0
  9
$DIMTIX
 70
     0
  9
$DIMSOXD
 70
     0
  9
$DIMSAH
 70
     0
  9
$DIMBLK1
  1

  9
$DIMBLK2
  1

  9
$DIMSTYLE
  2
ISO-25
  9
$DIMCLRD
 70
     0
  9
$DIMCLRE
 70
     0
  9
$DIMCLRT
 70
     0
  9
$DIMTFAC
 40
1.0
  9
$DIMGAP
 40
1.524
  9
$DIMJUST
 70
     0
  9
$DIMSD1
 70
     0
  9
$DIMSD2
 70
     0
  9
$DIMTOLJ
 70
     0
  9
$DIMTZIN
 70
     0
  9
$DIMALTZ
 70
     0
  9
$DIMALTTZ
 70
     0
  9
$DIMUPT
 70
     0
  9
$DIMDEC
 70
     3
  9
$DIMTDEC
 70
     3
  9
$DIMALTU
 70
     2
  9
$DIMALTTD
 70
     3
  9
$DIMTXSTY
  7
Standard
  9
$DIMAUNIT
 70
     0
  9
$DIMADEC
 70
     2
  9
$DIMALTRND
 40
0.0
  9
$DIMAZIN
 70
     0
  9
$DIMDSEP
 70
    44
  9
$DIMATFIT
 70
     3
  9
$DIMFRAC
 70
     0
  9
$DIMLDRBLK
  1

  9
$DIMLUNIT
 70
     2
  9
$DIMLWD
 70
    -2
  9
$DIMLWE
 70
    -2
  9
$DIMTMOVE
 70
     0
  9
$LUNITS
 70
     2
  9
$LUPREC
 70
     2
  9
$SKETCHINC
 40
1.0
  9
$FILLETRAD
 40
10.0
  9
$AUNITS
 70
     0
  9
$AUPREC
 70
     2
  9
$MENU
  1
.
  9
$ELEVATION
 40
0.0
  9
$PELEVATION
 40
0.0
  9
$THICKNESS
 40
0.0
  9
$LIMCHECK
 70
     0
  9
$CHAMFERA
 40
10.0
  9
$CHAMFERB
 40
10.0
  9
$CHAMFERC
 40
20.0
  9
$CHAMFERD
 40
0.0
  9
$SKPOLY
 70
     0
  9
$TDCREATE
 40
2455413.456778229
  9
$TDUCREATE
 40
2455413.373444896
  9
$TDUPDATE
 40
2455413.456778241
  9
$TDUUPDATE
 40
2455413.373444907
  9
$TDINDWG
 40
0.0000000116
  9
$TDUSRTIMER
 40
0.0000000116
  9
$USRTIMER
 70
     1
  9
$ANGBASE
 50
0.0
  9
$ANGDIR
 70
     0
  9
$PDMODE
 70
     0
  9
$PDSIZE
 40
-1.0
  9
$PLINEWID
 40
0.0
  9
$SPLFRAME
 70
     0
  9
$SPLINETYPE
 70
     6
  9
$SPLINESEGS
 70
     8
  9
$HANDSEED
  5
3BF
  9
$SURFTAB1
 70
     6
  9
$SURFTAB2
 70
     6
  9
$SURFTYPE
 70
     6
  9
$SURFU
 70
     6
  9
$SURFV
 70
     6
  9
$UCSBASE
  2

  9
$UCSNAME
  2

  9
$UCSORG
 10
0.0
 20
0.0
 30
0.0
  9
$UCSXDIR
 10
1.0
 20
0.0
 30
0.0
  9
$UCSYDIR
 10
0.0
 20
1.0
 30
0.0
  9
$UCSORTHOREF
  2

  9
$UCSORTHOVIEW
 70
     0
  9
$UCSORGTOP
 10
0.0
 20
0.0
 30
0.0
  9
$UCSORGBOTTOM
 10
0.0
 20
0.0
 30
0.0
  9
$UCSORGLEFT
 10
0.0
 20
0.0
 30
0.0
  9
$UCSORGRIGHT
 10
0.0
 20
0.0
 30
0.0
  9
$UCSORGFRONT
 10
0.0
 20
0.0
 30
0.0
  9
$UCSORGBACK
 10
0.0
 20
0.0
 30
0.0
  9
$PUCSBASE
  2

  9
$PUCSNAME
  2

  9
$PUCSORG
 10
0.0
 20
0.0
 30
0.0
  9
$PUCSXDIR
 10
1.0
 20
0.0
 30
0.0
  9
$PUCSYDIR
 10
0.0
 20
1.0
 30
0.0
  9
$PUCSORTHOREF
  2

  9
$PUCSORTHOVIEW
 70
     0
  9
$PUCSORGTOP
 10
0.0
 20
0.0
 30
0.0
  9
$PUCSORGBOTTOM
 10
0.0
 20
0.0
 30
0.0
  9
$PUCSORGLEFT
 10
0.0
 20
0.0
 30
0.0
  9
$PUCSORGRIGHT
 10
0.0
 20
0.0
 30
0.0
  9
$PUCSORGFRONT
 10
0.0
 20
0.0
 30
0.0
  9
$PUCSORGBACK
 10
0.0
 20
0.0
 30
0.0
  9
$USERI1
 70
     0
  9
$USERI2
 70
     0
  9
$USERI3
 70
     0
  9
$USERI4
 70
     0
  9
$USERI5
 70
     0
  9
$USERR1
 40
0.0
  9
$USERR2
 40
0.0
  9
$USERR3
 40
0.0
  9
$USERR4
 40
0.0
  9
$USERR5
 40
0.0
  9
$WORLDVIEW
 70
     1
  9
$SHADEDGE
 70
     3
  9
$SHADEDIF
 70
    70
  9
$TILEMODE
 70
     1
  9
$MAXACTVP
 70
    64
  9
$PINSBASE
 10
0.0
 20
0.0
 30
0.0
  9
$PLIMCHECK
 70
     0
  9
$PEXTMIN
 10
1.0000000000E+20
 20
1.0000000000E+20
 30
1.0000000000E+20
  9
$PEXTMAX
 10
-1.0000000000E+20
 20
-1.0000000000E+20
 30
-1.0000000000E+20
  9
$PLIMMIN
 10
0.0
 20
0.0
  9
$PLIMMAX
 10
420.0
 20
297.0
  9
$UNITMODE
 70
     0
  9
$VISRETAIN
 70
     1
  9
$PLINEGEN
 70
     0
  9
$PSLTSCALE
 70
     1
  9
$TREEDEPTH
 70
  3020
  9
$CMLSTYLE
  2
Standard
  9
$CMLJUST
 70
     0
  9
$CMLSCALE
 40
20.0
  9
$PROXYGRAPHICS
 70
     1
  9
$MEASUREMENT
 70
     1
  9
$CELWEIGHT
370
    -1
  9
$ENDCAPS
280
     0
  9
$JOINSTYLE
280
     0
  9
$LWDISPLAY
290
     1
  9
$INSUNITS
 70
     4
  9
$HYPERLINKBASE
  1

  9
$STYLESHEET
  1

  9
$XEDIT
290
     1
  9
$CEPSNTYPE
380
     0
  9
$PSTYLEMODE
290
     1
  9
$FINGERPRINTGUID
  2
{098E1948-A704-4878-8B04-34FF41DF5361}
  9
$VERSIONGUID
  2
{FAEB1C32-E019-11D5-929B-00C0DF256EC4}
  9
$EXTNAMES
290
     1
  9
$PSVPSCALE
 40
0.0
  9
$OLESTARTUP
290
     0
  0
ENDSEC
  0
SECTION
  2
CLASSES
  0
CLASS
  1
ACDBDICTIONARYWDFLT
  2
AcDbDictionaryWithDefault
  3
ObjectDBX Classes
 90
        0
280
     0
281
     0
  0
CLASS
  1
VISUALSTYLE
  2
AcDbVisualStyle
  3
ObjectDBX Classes
 90
     4095
280
     0
281
     0
  0
CLASS
  1
DICTIONARYVAR
  2
AcDbDictionaryVar
  3
ObjectDBX Classes
 90
        0
280
     0
281
     0
  0
CLASS
  1
ACDBPLACEHOLDER
  2
AcDbPlaceHolder
  3
ObjectDBX Classes
 90
        0
280
     0
281
     0
  0
CLASS
  1
LAYOUT
  2
AcDbLayout
  3
ObjectDBX Classes
 90
        0
280
     0
281
     0
  0
ENDSEC
  0
SECTION
  2
TABLES
  0
TABLE
  2
VPORT
  5
8
330
0
100
AcDbSymbolTable
 70
     1
  0
VPORT
  5
29
330
8
100
AcDbSymbolTableRecord
100
AcDbViewportTableRecord
  2
*Active
 70
     0
 10
0.0
 20
0.0
 11
1.0
 21
1.0
 12
420.5
 22
297.0
 13
0.0
 23
0.0
 14
10.0
 24
10.0
 15
10.0
 25
10.0
 16
0.0
 26
0.0
 36
1.0
 17
0.0
 27
0.0
 37
0.0
 40
594.0
 41
1.4158249158
 42
50.0
 43
0.0
 44
0.0
 50
0.0
 51
0.0
 71
     0
 72
  2000
 73
     1
 74
     3
 75
     0
 76
     0
 77
     0
 78
     0
281
     0
 65
     1
110
0.0
120
0.0
130
0.0
111
1.0
121
0.0
131
0.0
112
0.0
122
1.0
132
0.0
 79
     0
146
0.0
  0
ENDTAB
  0
TABLE
  2
LTYPE
  5
5
330
0
100
AcDbSymbolTable
 70
     6
  0
LTYPE
  5
14
330
5
100
AcDbSymbolTableRecord
100
AcDbLinetypeTableRecord
  2
ByBlock
 70
     0
  3

 72
    65
 73
     0
 40
0.0
  0
LTYPE
  5
15
330
5
100
AcDbSymbolTableRecord
100
AcDbLinetypeTableRecord
  2
ByLayer
 70
     0
  3

 72
    65
 73
     0
 40
0.0
  0
LTYPE
  5
16
330
5
100
AcDbSymbolTableRecord
100
AcDbLinetypeTableRecord
  2
Continuous
 70
     0
  3
Solid line
 72
    65
 73
     0
 40
0.0
  0
LTYPE
  5
3B
330
5
100
AcDbSymbolTableRecord
100
AcDbLinetypeTableRecord
  2
HIDDEN
 70
     0
  3
Hidden __ __ __ __ __ __ __ __ __ __ __ __ __ __
 72
    65
 73
     2
 40
1.905
 49
1.27
 74
     0
 49
-0.635
 74
     0
  0
LTYPE
  5
3C
330
5
100
AcDbSymbolTableRecord
100
AcDbLinetypeTableRecord
  2
PHANTOM
 70
     0
  3
Phantom ______  __  __  ______  __  __  ______
 72
    65
 73
     6
 40
12.7
 49
6.35
 74
     0
 49
-1.27
 74
     0
 49
1.27
 74
     0
 49
-1.27
 74
     0
 49
1.27
 74
     0
 49
-1.27
 74
     0
  0
LTYPE
  5
3D
330
5
100
AcDbSymbolTableRecord
100
AcDbLinetypeTableRecord
  2
CENTER
 70
     0
  3
Center ____ _ ____ _ ____ _ ____ _ ____ _ ____
 72
    65
 73
     4
 40
10.16
 49
6.35
 74
     0
 49
-1.27
 74
     0
 49
1.27
 74
     0
 49
-1.27
 74
     0
  0
LTYPE
  5
3E
330
5
100
AcDbSymbolTableRecord
100
AcDbLinetypeTableRecord
  2
CENTERX2
 70
     0
  3
Center (2x) ________  __  ________  __  _____
 72
    65
 73
     4
 40
20.32
 49
12.7
 74
     0
 49
-2.54
 74
     0
 49
2.54
 74
     0
 49
-2.54
 74
     0
  0
LTYPE
  5
3F
330
5
100
AcDbSymbolTableRecord
100
AcDbLinetypeTableRecord
  2
DOT2
 70
     0
  3
Dot (.5x) ........................................
 72
    65
 73
     2
 40
0.635
 49
0.0
 74
     0
 49
-0.635
 74
     0
  0
ENDTAB
  0
TABLE
  2
LAYER
  5
2
330
0
100
AcDbSymbolTable
 70
     1
  0
LAYER
  5
10
330
2
100
AcDbSymbolTableRecord
100
AcDbLayerTableRecord
  2
0
 70
     0
 62
     7
  6
Continuous
370
    -3
390
F
  0
ENDTAB
  0
TABLE
  2
STYLE
  5
3
330
0
100
AcDbSymbolTable
 70
     1
  0
STYLE
  5
11
330
3
100
AcDbSymbolTableRecord
100
AcDbTextStyleTableRecord
  2
Standard
 70
     0
 40
0.0
 41
1.0
 50
0.0
 71
     0
 42
2.5
  3
txt
  4

  0
ENDTAB
  0
TABLE
  2
VIEW
  5
6
330
0
100
AcDbSymbolTable
 70
     0
  0
ENDTAB
  0
TABLE
  2
UCS
  5
7
330
0
100
AcDbSymbolTable
 70
     0
  0
ENDTAB
  0
TABLE
  2
APPID
  5
9
330
0
100
AcDbSymbolTable
 70
     1
  0
APPID
  5
12
330
9
100
AcDbSymbolTableRecord
100
AcDbRegAppTableRecord
  2
ACAD
 70
     0
  0
ENDTAB
  0
TABLE
  2
DIMSTYLE
  5
A
330
0
100
AcDbSymbolTable
 70
     1
100
AcDbDimStyleTable
  0
DIMSTYLE
105
27
330
A
100
AcDbSymbolTableRecord
100
AcDbDimStyleTableRecord
  2
ISO-25
 70
     0
 41
2.5
 42
0.625
 43
3.75
 44
1.25
 73
     0
 74
     0
 77
     1
 78
     8
140
2.5
141
2.5
143
0.0393700787
147
0.625
171
     3
172
     1
271
     2
272
     2
274
     3
278
    44
283
     0
284
     8
340
11
  0
ENDTAB
  0
TABLE
  2
BLOCK_RECORD
  5
1
330
0
100
AcDbSymbolTable
 70
     1
  0
BLOCK_RECORD
  5
1F
330
1
100
AcDbSymbolTableRecord
100
AcDbBlockTableRecord
  2
*Model_Space
340
22
  0
BLOCK_RECORD
  5
1B
330
1
100
AcDbSymbolTableRecord
100
AcDbBlockTableRecord
  2
*Paper_Space
340
1E
  0
BLOCK_RECORD
  5
23
330
1
100
AcDbSymbolTableRecord
100
AcDbBlockTableRecord
  2
*Paper_Space0
340
26
  0
ENDTAB
  0
ENDSEC
  0
SECTION
  2
BLOCKS
  0
BLOCK
  5
20
330
1F
100
AcDbEntity
  8
0
100
AcDbBlockBegin
  2
*Model_Space
 70
     0
 10
0.0
 20
0.0
 30
0.0
  3
*Model_Space
  1

  0
ENDBLK
  5
21
330
1F
100
AcDbEntity
  8
0
100
AcDbBlockEnd
  0
BLOCK
  5
1C
330
1B
100
AcDbEntity
 67
     1
  8
0
100
AcDbBlockBegin
  2
*Paper_Space
 70
     0
 10
0.0
 20
0.0
 30
0.0
  3
*Paper_Space
  1

  0
ENDBLK
  5
1D
330
1B
100
AcDbEntity
 67
     1
  8
0
100
AcDbBlockEnd
  0
BLOCK
  5
24
330
23
100
AcDbEntity
  8
0
100
AcDbBlockBegin
  2
*Paper_Space0
 70
     0
 10
0.0
 20
0.0
 30
0.0
  3
*Paper_Space0
  1

  0
ENDBLK
  5
25
330
23
100
AcDbEntity
  8
0
100
AcDbBlockEnd
  0
ENDSEC
  0
SECTION
  2
ENTITIES
  0
LINE
  5
40
330
1F
100
AcDbEntity
  8
0
  6
Continuous
 62
     7
370
    15
100
AcDbLine
 10
1389.7734604105
 20
1467.863787746
 30
0.0
 11
1341.3859329447
 21
1467.863787746
 31
0.0
  0
LINE
  5
41
330
1F
100
AcDbEntity
  8
0
  6
Continuous
 62
     7
370
    15
100
AcDbLine
 10
1310.1609668955
 20
1467.863787746
 30
0.0
 11
-97.22658775
 21
1467.863787746
 31
0.0
  0
LINE
  5
42
330
1F
100
AcDbEntity
  8
0
  6
Continuous
 62
     7
370
    15
100
AcDbLine
 10
-127.2265591398
 20
1467.863787746
 30
0.0
 11
-797.2265832797
 21
1467.863787746
 31
0.0
  0
LINE
  5
43
330
1F
100
AcDbEntity
  8
0
  6
Continuous
 62
     7
370
    15
100
AcDbLine
 10
-827.2265844718
 20
1467.863787746
 30
0.0
 11
-830.6140877977
 21
1467.863787746
 31
0.0
  0
LINE
  5
44
330
1F
100
AcDbEntity
  8
0
  6
Continuous
 62
     7
370
    15
100
AcDbLine
 10
-861.8390799239
 20
1467.863787746
 30
0.0
 11
-910.2265852709
 21
1467.863787746
 31
0.0
  0
LINE
  5
45
330
1F
100
AcDbEntity
  8
0
  6
Continuous
 62
     7
370
    15
100
AcDbLine
 10
-910.2265852709
 20
1442.8637855109
 30
0.0
 11
-861.8390799239
 21
1442.8637855109
 31
0.0
  0
LINE
  5
46
330
1F
100
AcDbEntity
  8
0
  6
Continuous
 62
     7
370
    15
100
AcDbLine
 10
-830.6140877977
 20
1442.8637855109
 30
0.0
 11
-827.2265844718
 21
1442.8637855109
 31
0.0
  0
LINE
  5
47
330
1F
100
AcDbEntity
  8
0
  6
Continuous
 62
     7
370
    15
100
AcDbLine
 10
-797.2265832797
 20
1442.8637855109
 30
0.0
 11
-127.2265591398
 21
1442.8637855109
 31
0.0
  0
LINE
  5
48
330
1F
100
AcDbEntity
  8
0
  6
Continuous
 62
     7
370
    15
100
AcDbLine
 10
-97.22658775
 20
1442.8637855109
 30
0.0
 11
1310.1609668955
 21
1442.8637855109
 31
0.0
  0
LINE
  5
49
330
1F
100
AcDbEntity
  8
0
  6
Continuous
 62
     7
370
    15
100
AcDbLine
 10
1341.3859329447
 20
1442.8637855109
 30
0.0
 11
1389.7734604105
 21
1442.8637855109
 31
0.0
  0
LINE
  5
4A
330
1F
100
AcDbEntity
  8
0
  6
Continuous
 62
     7
370
    15
100
AcDbLine
 10
-83.6567559019
 20
-635.0361659769
 30
0.0
 11
-83.7266125456
 21
-639.0361144785
 31
0.0
  0
LINE
  5
4B
330
1F
100
AcDbEntity
  8
0
  6
Continuous
 62
     7
370
    15
100
AcDbLine
 10
-55.7265558019
 20
-639.0361144785
 30
0.0
 11
-55.7964124456
 21
-635.0361659769
 31
0.0
  0
LINE
  5
4C
330
1F
100
AcDbEntity
  8
0
  6
Continuous
 62
     7
370
    15
100
AcDbLine
 10
-910.4265853968
 20
1442.8637855109
 30
0.0
 11
-910.2265852709
 21
1443.0637870338
 31
0.0
  0
LINE
  5
4D
330
1F
100
AcDbEntity
  8
0
  6
Continuous
 62
     7
370
    15
100
AcDbLine
 10
-910.2265852709
 20
1467.6637880858
 30
0.0
 11
-910.4265853968
 21
1467.863787746
 31
0.0
  0
LINE
  5
4E
330
1F
100
AcDbEntity
  8
0
  6
Continuous
 62
     7
370
    15
100
AcDbLine
 10
-912.0265853709
 20
1467.863787746
 30
0.0
 11
-912.2265853659
 21
1467.6637880858
 31
0.0
  0
LINE
  5
4F
330
1F
100
AcDbEntity
  8
0
  6
Continuous
 62
     7
370
    15
100
AcDbLine
 10
-912.2265853659
 20
1443.0637870338
 30
0.0
 11
-912.0265853709
 21
1442.8637855109
 31
0.0
  0
LINE
  5
50
330
1F
100
AcDbEntity
  8
0
  6
Continuous
 62
     7
370
    15
100
AcDbLine
 10
-912.0265853709
 20
1442.8637855109
 30
0.0
 11
-910.4265853968
 21
1442.8637855109
 31
0.0
  0
LINE
  5
51
330
1F
100
AcDbEntity
  8
0
  6
Continuous
 62
     7
370
    15
100
AcDbLine
 10
-910.4265853968
 20
1467.863787746
 30
0.0
 11
-912.0265853709
 21
1467.863787746
 31
0.0
  0
LINE
  5
52
330
1F
100
AcDbEntity
  8
0
  6
Continuous
 62
     7
370
    15
100
AcDbLine
 10
1391.5735206827
 20
1442.8637855109
 30
0.0
 11
1391.773315452
 21
1443.0637870338
 31
0.0
  0
LINE
  5
53
330
1F
100
AcDbEntity
  8
0
  6
Continuous
 62
     7
370
    15
100
AcDbLine
 10
1391.773315452
 20
1467.6637880858
 30
0.0
 11
1391.5735206827
 21
1467.863787746
 31
0.0
  0
LINE
  5
54
330
1F
100
AcDbEntity
  8
0
  6
Continuous
 62
     7
370
    15
100
AcDbLine
 10
1389.9734935984
 20
1467.863787746
 30
0.0
 11
1389.7734604105
 21
1467.6637880858
 31
0.0
  0
LINE
  5
55
330
1F
100
AcDbEntity
  8
0
  6
Continuous
 62
     7
370
    15
100
AcDbLine
 10
1389.7734604105
 20
1443.0637870338
 30
0.0
 11
1389.9734935984
 21
1442.8637855109
 31
0.0
  0
LINE
  5
56
330
1F
100
AcDbEntity
  8
0
  6
Continuous
 62
     7
370
    15
100
AcDbLine
 10
1391.5735206827
 20
1467.863787746
 30
0.0
 11
1389.9734935984
 21
1467.863787746
 31
0.0
  0
LINE
  5
57
330
1F
100
AcDbEntity
  8
0
  6
Continuous
 62
     7
370
    15
100
AcDbLine
 10
1389.9734935984
 20
1442.8637855109
 30
0.0
 11
1391.5735206827
 21
1442.8637855109
 31
0.0
  0
LINE
  5
58
330
1F
100
AcDbEntity
  8
0
  6
Continuous
 62
     7
370
    15
100
AcDbLine
 10
1389.7734604105
 20
1455.3637847658
 30
0.0
 11
1389.7734604105
 21
1467.863787746
 31
0.0
  0
LINE
  5
59
330
1F
100
AcDbEntity
  8
0
  6
Continuous
 62
     7
370
    15
100
AcDbLine
 10
1389.7734604105
 20
1442.8637855109
 30
0.0
 11
1389.7734604105
 21
1455.3637847658
 31
0.0
  0
SPLINE
  5
5A
330
1F
100
AcDbEntity
  8
0
  6
Continuous
 62
     7
370
    15
100
AcDbSpline
210
0.0
220
0.0
230
1.0
 70
    11
 71
     3
 72
    28
 73
    24
 74
     0
 42
0.00000001
 43
0.00000001
 40
0.0
 40
0.0
 40
0.0
 40
0.0
 40
0.047554998855648
 40
0.0949663729075508
 40
0.1460688031890612
 40
0.203457131643988
 40
0.2467859917871444
 40
0.2901846772352684
 40
0.3330335353404942
 40
0.3834822094247314
 40
0.4410917530078252
 40
0.4950480732326987
 40
0.5415898516679792
 40
0.5869404100884075
 40
0.6370238693535313
 40
0.6937077578323025
 40
0.7381345469657137
 40
0.7826957483874977
 40
0.8249697966993171
 40
0.8737311731463089
 40
0.9306925188310963
 40
0.9860188427474528
 40
1.0
 40
1.0
 40
1.0
 40
1.0
 10
247.3233661874916
 20
1455.3637847658
 30
0.0
 10
247.2534105878801
 20
1454.590985513428
 30
0.0
 10
247.1137106673767
 20
1453.047721003926
 30
0.0
 10
246.0407488640238
 20
1450.96204298512
 30
0.0
 10
244.3864353103738
 20
1449.210713545337
 30
0.0
 10
242.2583245615047
 20
1448.097173453401
 30
0.0
 10
239.9328707994122
 20
1447.714690793057
 30
0.0
 10
237.8181335616903
 20
1447.972589638842
 30
0.0
 10
235.8229588452961
 20
1448.808374862206
 30
0.0
 10
234.0069617723106
 20
1450.279694092113
 30
0.0
 10
232.6364146929569
 20
1452.449327175997
 30
0.0
 10
232.0961720903061
 20
1454.99904758574
 30
0.0
 10
232.3849536547231
 20
1457.383041657169
 30
0.0
 10
233.3005546849165
 20
1459.460626243714
 30
0.0
 10
234.841050377107
 20
1461.255430148636
 30
0.0
 10
236.8754348397193
 20
1462.474127935343
 30
0.0
 10
239.1842214793854
 20
1462.99690615442
 30
0.0
 10
241.347846354403
 20
1462.848111605745
 30
0.0
 10
243.377958262826
 20
1462.111040612559
 30
0.0
 10
245.2371403450471
 20
1460.763353092624
 30
0.0
 10
246.7127915641101
 20
1458.711710726565
 30
0.0
 10
247.2859037475652
 20
1456.710983806417
 30
0.0
 10
247.3170775955107
 20
1455.589930876414
 30
0.0
 10
247.3233661874919
 20
1455.3637847658
 30
0.0
  0
SPLINE
  5
5B
330
1F
100
AcDbEntity
  8
0
  6
Continuous
 62
     7
370
    15
100
AcDbSpline
210
0.0
220
0.0
230
1.0
 70
    11
 71
     3
 72
    28
 73
    24
 74
     0
 42
0.00000001
 43
0.00000001
 40
0.0
 40
0.0
 40
0.0
 40
0.0
 40
0.0475550044222209
 40
0.0949653373472474
 40
0.1460677736105771
 40
0.203456108783122
 40
0.246787383240003
 40
0.2901836436536686
 40
0.3330325067745879
 40
0.3834848135471744
 40
0.4410931144502413
 40
0.4950494409909974
 40
0.5415915137158779
 40
0.5869420774448372
 40
0.6370240232076059
 40
0.6937079183215366
 40
0.7381347126553466
 40
0.7826959192932631
 40
0.8249699725534915
 40
0.8737313547082692
 40
0.9306913414914169
 40
0.9860189509691552
 40
1.0
 40
1.0
 40
1.0
 40
1.0
 10
1267.323347114005
 20
1455.3637847658
 30
0.0
 10
1267.253381084211
 20
1454.590990288534
 30
0.0
 10
1267.113661874781
 20
1453.047752323881
 30
0.0
 10
1266.040877109249
 20
1450.962012874618
 30
0.0
 10
1264.386522991917
 20
1449.210720023373
 30
0.0
 10
1262.258393566247
 20
1448.097151897224
 30
0.0
 10
1259.932929369735
 20
1447.714696943744
 30
0.0
 10
1257.818188079239
 20
1447.972593680009
 30
0.0
 10
1255.82304843719
 20
1448.808436324679
 30
0.0
 10
1254.00679310844
 20
1450.279575460144
 30
0.0
 10
1252.636446514747
 20
1452.4493729609
 30
0.0
 10
1252.096095004782
 20
1454.999050871648
 30
0.0
 10
1252.385089506559
 20
1457.383038126728
 30
0.0
 10
1253.300654439522
 20
1459.460589123978
 30
0.0
 10
1254.841022569916
 20
1461.255466679608
 30
0.0
 10
1256.875422367773
 20
1462.474122835976
 30
0.0
 10
1259.184199921349
 20
1462.996907040228
 30
0.0
 10
1261.347831263218
 20
1462.848112675076
 30
0.0
 10
1263.377925570119
 20
1462.111035511721
 30
0.0
 10
1265.237167612698
 20
1460.763389922049
 30
0.0
 10
1266.712484930719
 20
1458.711625326995
 30
0.0
 10
1267.286163861394
 20
1456.711017753348
 30
0.0
 10
1267.317105515935
 20
1455.589931921449
 30
0.0
 10
1267.323347114005
 20
1455.3637847658
 30
0.0
  0
SPLINE
  5
5C
330
1F
100
AcDbEntity
  8
0
  6
Continuous
 62
     7
370
    15
100
AcDbSpline
210
0.0
220
0.0
230
1.0
 70
    11
 71
     3
 72
    28
 73
    24
 74
     0
 42
0.00000001
 43
0.00000001
 40
0.0
 40
0.0
 40
0.0
 40
0.0
 40
0.0475552008131599
 40
0.0949665905848558
 40
0.146069037809972
 40
0.2034573852926674
 40
0.246785055182828
 40
0.2901849700789284
 40
0.3330338423911921
 40
0.3834834398778161
 40
0.4410923778404134
 40
0.4950487159551331
 40
0.5415905098218822
 40
0.5869410832788161
 40
0.637024559149694
 40
0.6937084664226686
 40
0.7381340853172581
 40
0.7826953015138272
 40
0.8249693638420996
 40
0.8737307564564935
 40
0.9306921210274783
 40
0.9860187830211401
 40
1.0
 40
1.0
 40
1.0
 40
1.0
 10
-262.6765646711204
 20
1455.3637847658
 30
0.0
 10
-262.7465450616964
 20
1454.590986213915
 30
0.0
 10
-262.8862942160928
 20
1453.047726119825
 30
0.0
 10
-263.9592370698982
 20
1450.962042306953
 30
0.0
 10
-265.6135563777462
 20
1449.210713612849
 30
0.0
 10
-267.7416495823988
 20
1448.097182846307
 30
0.0
 10
-270.067097009226
 20
1447.714689898522
 30
0.0
 10
-272.1818424161083
 20
1447.97257995787
 30
0.0
 10
-274.1770327505178
 20
1448.808390934083
 30
0.0
 10
-275.9930987643643
 20
1450.279657067141
 30
0.0
 10
-277.3635605232124
 20
1452.449348054245
 30
0.0
 10
-277.9038222097398
 20
1454.999045180227
 30
0.0
 10
-277.6150358917055
 20
1457.38304229647
 30
0.0
 10
-276.6994359899536
 20
1459.460625846734
 30
0.0
 10
-275.158940278652
 20
1461.255431199628
 30
0.0
 10
-273.1245704971451
 20
1462.474114514765
 30
0.0
 10
-270.8158108853564
 20
1462.996910939819
 30
0.0
 10
-268.6522033097679
 20
1462.848110128579
 30
0.0
 10
-266.6220917195713
 20
1462.111040823315
 30
0.0
 10
-264.7629107440785
 20
1460.763354165581
 30
0.0
 10
-263.2872509258161
 20
1458.711701323225
 30
0.0
 10
-262.7141548226515
 20
1456.710985903348
 30
0.0
 10
-262.6828746935647
 20
1455.589930952201
 30
0.0
 10
-262.6765646711203
 20
1455.3637847658
 30
0.0
  0
SPLINE
  5
5D
330
1F
100
AcDbEntity
  8
0
  6
Continuous
 62
     7
370
    15
100
AcDbSpline
210
0.0
220
0.0
230
1.0
 70
    11
 71
     3
 72
    28
 73
    24
 74
     0
 42
0.00000001
 43
0.00000001
 40
0.0
 40
0.0
 40
0.0
 40
0.0
 40
0.0475551080025482
 40
0.0949663672213787
 40
0.1460694174184811
 40
0.203457240539264
 40
0.2467855130015363
 40
0.2901854281607572
 40
0.3330337505857465
 40
0.3834831217080682
 40
0.4410923723783117
 40
0.4950486798373283
 40
0.5415905100844646
 40
0.5869407849802347
 40
0.6370246410076884
 40
0.6937085486243202
 40
0.7381338715463547
 40
0.7826953940275508
 40
0.8249694566121181
 40
0.8737310862609505
 40
0.9306922804770736
 40
0.9860187829363762
 40
1.0
 40
1.0
 40
1.0
 40
1.0
 10
-772.6765849366997
 20
1455.3637847658
 30
0.0
 10
-772.7465549145345
 20
1454.590987019281
 30
0.0
 10
-772.8862832189926
 20
1453.04772915138
 30
0.0
 10
-773.9592074357187
 20
1450.96202338605
 30
0.0
 10
-775.6135771893066
 20
1449.210737382718
 30
0.0
 10
-777.7416518503742
 20
1448.09716974507
 30
0.0
 10
-780.0671087527198
 20
1447.714693503658
 30
0.0
 10
-782.18185476665
 20
1447.972574359912
 30
0.0
 10
-784.1770283582316
 20
1448.808395606442
 30
0.0
 10
-785.9930705596978
 20
1450.279669053278
 30
0.0
 10
-787.3635721358198
 20
1452.449336822918
 30
0.0
 10
-787.9038265855329
 20
1454.999050224019
 30
0.0
 10
-787.6150028132871
 20
1457.383030286542
 30
0.0
 10
-786.6994707097301
 20
1459.460644659251
 30
0.0
 10
-785.1589229908544
 20
1461.255420269406
 30
0.0
 10
-783.1245673959539
 20
1462.474113235774
 30
0.0
 10
-780.8158064840827
 20
1462.996911834258
 30
0.0
 10
-778.6521978945726
 20
1462.848112113867
 30
0.0
 10
-776.6220807632886
 20
1462.111037124068
 30
0.0
 10
-774.7628876197987
 20
1460.763362668937
 30
0.0
 10
-773.2872340959537
 20
1458.711701027435
 30
0.0
 10
-772.7141767301435
 20
1456.710982946419
 30
0.0
 10
-772.6828952468738
 20
1455.589930889918
 30
0.0
 10
-772.6765849366997
 20
1455.3637847658
 30
0.0
  0
SPLINE
  5
5E
330
1F
100
AcDbEntity
  8
0
  6
Continuous
 62
     7
370
    15
100
AcDbSpline
210
0.0
220
0.0
230
1.0
 70
    11
 71
     3
 72
    28
 73
    24
 74
     0
 42
0.00000001
 43
0.00000001
 40
0.0
 40
0.0
 40
0.0
 40
0.0
 40
0.0475549978626531
 40
0.0949663709245601
 40
0.1460688001390019
 40
0.2034571273956044
 40
0.2467835773978242
 40
0.2901846920569057
 40
0.3330335492674056
 40
0.3834822222982252
 40
0.4410917646783754
 40
0.4950480837765882
 40
0.541589861240031
 40
0.5869404187134952
 40
0.6370238769328276
 40
0.6937077642279837
 40
0.7381345524337202
 40
0.7826957529250227
 40
0.8249698003541188
 40
0.8737311757829254
 40
0.9306925202783043
 40
0.986018843039393
 40
1.0
 40
1.0
 40
1.0
 40
1.0
 10
757.3233566507485
 20
1455.3637847658
 30
0.0
 10
757.253401056792
 20
1454.590985504779
 30
0.0
 10
757.1137011475823
 20
1453.047720978004
 30
0.0
 10
756.0407392575321
 20
1450.962043091791
 30
0.0
 10
754.3864260729403
 20
1449.210713087581
 30
0.0
 10
752.2583476606692
 20
1448.097192860438
 30
0.0
 10
749.93290509232
 20
1447.714687544231
 30
0.0
 10
747.8181590413775
 20
1447.972575675597
 30
0.0
 10
745.8229494527293
 20
1448.808374577247
 30
0.0
 10
744.0069521876716
 20
1450.279694186776
 30
0.0
 10
742.6364051688768
 20
1452.449327150969
 30
0.0
 10
742.0961625507638
 20
1454.999047591272
 30
0.0
 10
742.3849441186601
 20
1457.383041655825
 30
0.0
 10
743.3005451479728
 20
1459.460626244111
 30
0.0
 10
744.8410408404283
 20
1461.255430148508
 30
0.0
 10
746.8754253029625
 20
1462.474127935371
 30
0.0
 10
749.1842119426451
 20
1462.996906154413
 30
0.0
 10
751.3478368176596
 20
1462.848111605747
 30
0.0
 10
753.3779487260828
 20
1462.111040612559
 30
0.0
 10
755.2371308083043
 20
1460.763353092624
 30
0.0
 10
756.7127820273663
 20
1458.711710726565
 30
0.0
 10
757.2858942108214
 20
1456.710983806417
 30
0.0
 10
757.3170680587677
 20
1455.589930876414
 30
0.0
 10
757.3233566507485
 20
1455.3637847658
 30
0.0
  0
LINE
  5
5F
330
1F
100
AcDbEntity
  8
0
  6
Continuous
 62
     7
370
    15
100
AcDbLine
 10
-910.2265852709
 20
1455.3637847658
 30
0.0
 11
-910.2265852709
 21
1467.863787746
 31
0.0
  0
LINE
  5
60
330
1F
100
AcDbEntity
  8
0
  6
Continuous
 62
     7
370
    15
100
AcDbLine
 10
-910.2265852709
 20
1442.8637855109
 30
0.0
 11
-910.2265852709
 21
1455.3637847658
 31
0.0
  0
LINE
  5
61
330
1F
100
AcDbEntity
  8
0
  6
Continuous
 62
     7
370
    15
100
AcDbLine
 10
-32.2265901342
 20
-639.0361144785
 30
0.0
 11
-32.2265901342
 21
-643.0363013987
 31
0.0
  0
LINE
  5
62
330
1F
100
AcDbEntity
  8
0
  6
Continuous
 62
     7
370
    15
100
AcDbLine
 10
-96.726564385
 20
-639.0361144785
 30
0.0
 11
-32.2265901342
 21
-639.0361144785
 31
0.0
  0
LINE
  5
63
330
1F
100
AcDbEntity
  8
0
  6
Continuous
 62
     7
370
    15
100
AcDbLine
 10
-96.726564385
 20
-639.0361144785
 30
0.0
 11
-96.726564385
 21
-643.0363013987
 31
0.0
  0
LINE
  5
64
330
1F
100
AcDbEntity
  8
0
  6
Continuous
 62
     7
370
    15
100
AcDbLine
 10
-96.726564385
 20
-643.0363013987
 30
0.0
 11
-32.2265901342
 21
-643.0363013987
 31
0.0
  0
LINE
  5
65
330
1F
100
AcDbEntity
  8
0
  6
Continuous
 62
     7
370
    15
100
AcDbLine
 10
1323.6151657328
 20
1454.541870242
 30
0.0
 11
1325.406166099
 21
1453.0837804433
 31
0.0
  0
LINE
  5
66
330
1F
100
AcDbEntity
  8
0
  6
Continuous
 62
     7
370
    15
100
AcDbLine
 10
1327.564331077
 20
1453.9056949671
 30
0.0
 11
1325.406166099
 21
1453.0837804433
 31
0.0
  0
LINE
  5
67
330
1F
100
AcDbEntity
  8
0
  6
Continuous
 62
     7
370
    15
100
AcDbLine
 10
1327.9314956888
 20
1456.1857030149
 30
0.0
 11
1327.564331077
 21
1453.9056949671
 31
0.0
  0
LINE
  5
68
330
1F
100
AcDbEntity
  8
0
  6
Continuous
 62
     7
370
    15
100
AcDbLine
 10
1323.9825687632
 20
1456.8218782898
 30
0.0
 11
1323.6151657328
 21
1454.541870242
 31
0.0
  0
LINE
  5
69
330
1F
100
AcDbEntity
  8
0
  6
Continuous
 62
     7
370
    15
100
AcDbLine
 10
1327.9314956888
 20
1456.1857030149
 30
0.0
 11
1326.1407337412
 21
1457.6437928136
 31
0.0
  0
LINE
  5
6A
330
1F
100
AcDbEntity
  8
0
  6
Continuous
 62
     7
370
    15
100
AcDbLine
 10
1323.9825687632
 20
1456.8218782898
 30
0.0
 11
1326.1407337412
 21
1457.6437928136
 31
0.0
  0
LINE
  5
6B
330
1F
100
AcDbEntity
  8
0
  6
Continuous
 62
     7
370
    15
100
AcDbLine
 10
-848.3847730533
 20
1454.541870242
 30
0.0
 11
-846.5938844457
 21
1453.0837804433
 31
0.0
  0
LINE
  5
6C
330
1F
100
AcDbEntity
  8
0
  6
Continuous
 62
     7
370
    15
100
AcDbLine
 10
-848.0174817816
 20
1456.8218782898
 30
0.0
 11
-848.3847730533
 21
1454.541870242
 31
0.0
  0
LINE
  5
6D
330
1F
100
AcDbEntity
  8
0
  6
Continuous
 62
     7
370
    15
100
AcDbLine
 10
-848.0174817816
 20
1456.8218782898
 30
0.0
 11
-845.8592870012
 21
1457.6437928136
 31
0.0
  0
LINE
  5
6E
330
1F
100
AcDbEntity
  8
0
  6
Continuous
 62
     7
370
    15
100
AcDbLine
 10
-844.0683909431
 20
1456.1857030149
 30
0.0
 11
-845.8592870012
 21
1457.6437928136
 31
0.0
  0
LINE
  5
6F
330
1F
100
AcDbEntity
  8
0
  6
Continuous
 62
     7
370
    15
100
AcDbLine
 10
-844.0683909431
 20
1456.1857030149
 30
0.0
 11
-844.4356896654
 21
1453.9056949671
 31
0.0
  0
LINE
  5
70
330
1F
100
AcDbEntity
  8
0
  6
Continuous
 62
     7
370
    15
100
AcDbLine
 10
-844.4356896654
 20
1453.9056949671
 30
0.0
 11
-846.5938844457
 21
1453.0837804433
 31
0.0
  0
ARC
  5
71
330
1F
100
AcDbEntity
  8
0
  6
Continuous
 62
     7
370
    15
100
AcDbCircle
 10
-846.2265853659
 20
1455.3637863394
 30
0.0
 40
20.0
100
AcDbArc
 50
18.1948723388
 51
341.8051276612
  0
CIRCLE
  5
72
330
1F
100
AcDbEntity
  8
0
  6
Continuous
 62
     7
370
    15
100
AcDbCircle
 10
1325.7734146341
 20
1455.3637863394
 30
0.0
 40
19.99999999999986
  0
LINE
  5
73
330
1F
100
AcDbEntity
  8
0
  6
Continuous
 62
     7
370
    15
100
AcDbLine
 10
-910.4265853968
 20
1442.8637855109
 30
0.0
 11
-910.4265853968
 21
1467.863787746
 31
0.0
  0
LINE
  5
74
330
1F
100
AcDbEntity
  8
0
  6
Continuous
 62
     7
370
    15
100
AcDbLine
 10
-912.0265853709
 20
1467.863787746
 30
0.0
 11
-912.0265853709
 21
1442.8637855109
 31
0.0
  0
LINE
  5
75
330
1F
100
AcDbEntity
  8
0
  6
Continuous
 62
     7
370
    15
100
AcDbLine
 10
-912.2265853659
 20
1443.0637870338
 30
0.0
 11
-912.2265853659
 21
1467.6637880858
 31
0.0
  0
LINE
  5
76
330
1F
100
AcDbEntity
  8
0
  6
Continuous
 62
     7
370
    15
100
AcDbLine
 10
1391.5735206827
 20
1455.2611567434
 30
0.0
 11
1391.5735206827
 21
1467.863787746
 31
0.0
  0
LINE
  5
77
330
1F
100
AcDbEntity
  8
0
  6
Continuous
 62
     7
370
    15
100
AcDbLine
 10
1391.5735206827
 20
1442.8637855109
 30
0.0
 11
1391.5735206827
 21
1455.2611567434
 31
0.0
  0
LINE
  5
78
330
1F
100
AcDbEntity
  8
0
  6
Continuous
 62
     7
370
    15
100
AcDbLine
 10
1391.773315452
 20
1455.2627995964
 30
0.0
 11
1391.773315452
 21
1443.0637870338
 31
0.0
  0
LINE
  5
79
330
1F
100
AcDbEntity
  8
0
  6
Continuous
 62
     7
370
    15
100
AcDbLine
 10
1391.773315452
 20
1467.6637880858
 30
0.0
 11
1391.773315452
 21
1455.2627995964
 31
0.0
  0
LINE
  5
7A
330
1F
100
AcDbEntity
  8
0
  6
Continuous
 62
     7
370
    15
100
AcDbLine
 10
1389.9734935984
 20
1455.2611567434
 30
0.0
 11
1389.9734935984
 21
1442.8637855109
 31
0.0
  0
LINE
  5
7B
330
1F
100
AcDbEntity
  8
0
  6
Continuous
 62
     7
370
    15
100
AcDbLine
 10
1389.9734935984
 20
1467.863787746
 30
0.0
 11
1389.9734935984
 21
1455.2611567434
 31
0.0
  0
LINE
  5
7C
330
1F
100
AcDbEntity
  8
0
  6
Continuous
 62
     7
370
    15
100
AcDbLine
 10
-109.7848095671
 20
1306.5251902099
 30
0.0
 11
-109.6535005346
 21
1303.6298722382
 31
0.0
  0
LINE
  5
7D
330
1F
100
AcDbEntity
  8
0
  6
Continuous
 62
     7
370
    15
100
AcDbLine
 10
-112.357942082
 20
1307.8591049071
 30
0.0
 11
-109.7848095671
 21
1306.5251902099
 31
0.0
  0
LINE
  5
7E
330
1F
100
AcDbEntity
  8
0
  6
Continuous
 62
     7
370
    15
100
AcDbLine
 10
-114.7997059599
 20
1306.2977016326
 30
0.0
 11
-112.357942082
 21
1307.8591049071
 31
0.0
  0
LINE
  5
7F
330
1F
100
AcDbEntity
  8
0
  6
Continuous
 62
     7
370
    15
100
AcDbLine
 10
-114.6683373228
 20
1303.4023836609
 30
0.0
 11
-114.7997059599
 21
1306.2977016326
 31
0.0
  0
LINE
  5
80
330
1F
100
AcDbEntity
  8
0
  6
Continuous
 62
     7
370
    15
100
AcDbLine
 10
-112.0952644125
 20
1302.0684689637
 30
0.0
 11
-114.6683373228
 21
1303.4023836609
 31
0.0
  0
CIRCLE
  5
81
330
1F
100
AcDbEntity
  8
0
  6
Continuous
 62
     7
370
    15
100
AcDbCircle
 10
-112.2265853659
 20
1304.9637863394
 30
0.0
 40
7.785000000000009
  0
LINE
  5
82
330
1F
100
AcDbEntity
  8
0
  6
Continuous
 62
     7
370
    15
100
AcDbLine
 10
-109.6535005346
 20
1303.6298722382
 30
0.0
 11
-112.0952644125
 21
1302.0684689637
 31
0.0
  0
ARC
  5
83
330
1F
100
AcDbEntity
  8
0
  6
Continuous
 62
     7
370
    15
100
AcDbCircle
 10
-112.2265853659
 20
1304.9637863394
 30
0.0
 40
2.51000000000003
100
AcDbArc
 50
182.5973255621
 51
242.5973255621
  0
ARC
  5
84
330
1F
100
AcDbEntity
  8
0
  6
Continuous
 62
     7
370
    15
100
AcDbCircle
 10
-112.2265853659
 20
1304.9637863394
 30
0.0
 40
2.510000000000034
100
AcDbArc
 50
302.5973255621
 51
2.5973255621
  0
ARC
  5
85
330
1F
100
AcDbEntity
  8
0
  6
Continuous
 62
     7
370
    15
100
AcDbCircle
 10
-112.2265853659
 20
1304.9637863394
 30
0.0
 40
2.51
100
AcDbArc
 50
242.5973255621
 51
302.5973255621
  0
ARC
  5
86
330
1F
100
AcDbEntity
  8
0
  6
Continuous
 62
     7
370
    15
100
AcDbCircle
 10
-112.2265853659
 20
1304.9637863394
 30
0.0
 40
2.51000000000003
100
AcDbArc
 50
122.5973255621
 51
182.5973255621
  0
ARC
  5
87
330
1F
100
AcDbEntity
  8
0
  6
Continuous
 62
     7
370
    15
100
AcDbCircle
 10
-112.2265853659
 20
1304.9637863394
 30
0.0
 40
2.510000000000006
100
AcDbArc
 50
62.5973255621
 51
122.5973255621
  0
ARC
  5
88
330
1F
100
AcDbEntity
  8
0
  6
Continuous
 62
     7
370
    15
100
AcDbCircle
 10
-112.2265853659
 20
1304.9637863394
 30
0.0
 40
2.510000000000034
100
AcDbArc
 50
2.5973255621
 51
62.5973255621
  0
LINE
  5
89
330
1F
100
AcDbEntity
  8
0
  6
Continuous
 62
     7
370
    15
100
AcDbLine
 10
-814.668340303
 20
1303.4023836609
 30
0.0
 11
-814.7996791378
 21
1306.2977016326
 31
0.0
  0
CIRCLE
  5
8A
330
1F
100
AcDbEntity
  8
0
  6
Continuous
 62
     7
370
    15
100
AcDbCircle
 10
-812.2265853659
 20
1304.9637863394
 30
0.0
 40
7.784999999999891
  0
LINE
  5
8B
330
1F
100
AcDbEntity
  8
0
  6
Continuous
 62
     7
370
    15
100
AcDbLine
 10
-814.7996791378
 20
1306.2977016326
 30
0.0
 11
-812.3579227105
 21
1307.8591049071
 31
0.0
  0
LINE
  5
8C
330
1F
100
AcDbEntity
  8
0
  6
Continuous
 62
     7
370
    15
100
AcDbLine
 10
-812.3579227105
 20
1307.8591049071
 30
0.0
 11
-809.784834899
 21
1306.5251902099
 31
0.0
  0
LINE
  5
8D
330
1F
100
AcDbEntity
  8
0
  6
Continuous
 62
     7
370
    15
100
AcDbLine
 10
-812.095245041
 20
1302.0684689637
 30
0.0
 11
-814.668340303
 21
1303.4023836609
 31
0.0
  0
LINE
  5
8E
330
1F
100
AcDbEntity
  8
0
  6
Continuous
 62
     7
370
    15
100
AcDbLine
 10
-809.784834899
 20
1306.5251902099
 30
0.0
 11
-809.6534960643
 21
1303.6298722382
 31
0.0
  0
LINE
  5
8F
330
1F
100
AcDbEntity
  8
0
  6
Continuous
 62
     7
370
    15
100
AcDbLine
 10
-809.6534960643
 20
1303.6298722382
 30
0.0
 11
-812.095245041
 21
1302.0684689637
 31
0.0
  0
ARC
  5
90
330
1F
100
AcDbEntity
  8
0
  6
Continuous
 62
     7
370
    15
100
AcDbCircle
 10
-812.2265853659
 20
1304.9637863394
 30
0.0
 40
2.510000000000044
100
AcDbArc
 50
2.5973255621
 51
62.5973255621
  0
ARC
  5
91
330
1F
100
AcDbEntity
  8
0
  6
Continuous
 62
     7
370
    15
100
AcDbCircle
 10
-812.2265853659
 20
1304.9637863394
 30
0.0
 40
2.510000000000044
100
AcDbArc
 50
302.5973255621
 51
2.5973255621
  0
ARC
  5
92
330
1F
100
AcDbEntity
  8
0
  6
Continuous
 62
     7
370
    15
100
AcDbCircle
 10
-812.2265853659
 20
1304.9637863394
 30
0.0
 40
2.509999999999843
100
AcDbArc
 50
242.5973255621
 51
302.5973255621
  0
ARC
  5
93
330
1F
100
AcDbEntity
  8
0
  6
Continuous
 62
     7
370
    15
100
AcDbCircle
 10
-812.2265853659
 20
1304.9637863394
 30
0.0
 40
2.510000000000034
100
AcDbArc
 50
182.5973255621
 51
242.5973255621
  0
ARC
  5
94
330
1F
100
AcDbEntity
  8
0
  6
Continuous
 62
     7
370
    15
100
AcDbCircle
 10
-812.2265853659
 20
1304.9637863394
 30
0.0
 40
2.510000000000034
100
AcDbArc
 50
122.5973255621
 51
182.5973255621
  0
ARC
  5
95
330
1F
100
AcDbEntity
  8
0
  6
Continuous
 62
     7
370
    15
100
AcDbCircle
 10
-812.2265853659
 20
1304.9637863394
 30
0.0
 40
2.510000000000034
100
AcDbArc
 50
62.5973255621
 51
122.5973255621
  0
LINE
  5
96
330
1F
100
AcDbEntity
  8
0
  6
Continuous
 62
     7
370
    15
100
AcDbLine
 10
-109.7848095671
 20
1361.5251899119
 30
0.0
 11
-109.6535005346
 21
1358.6298682149
 31
0.0
  0
LINE
  5
97
330
1F
100
AcDbEntity
  8
0
  6
Continuous
 62
     7
370
    15
100
AcDbLine
 10
-114.7997059599
 20
1361.2977013346
 30
0.0
 11
-112.357942082
 21
1362.8591083344
 31
0.0
  0
LINE
  5
98
330
1F
100
AcDbEntity
  8
0
  6
Continuous
 62
     7
370
    15
100
AcDbLine
 10
-114.6683373228
 20
1358.4023833628
 30
0.0
 11
-114.7997059599
 21
1361.2977013346
 31
0.0
  0
LINE
  5
99
330
1F
100
AcDbEntity
  8
0
  6
Continuous
 62
     7
370
    15
100
AcDbLine
 10
-112.357942082
 20
1362.8591083344
 30
0.0
 11
-109.7848095671
 21
1361.5251899119
 31
0.0
  0
LINE
  5
9A
330
1F
100
AcDbEntity
  8
0
  6
Continuous
 62
     7
370
    15
100
AcDbLine
 10
-112.0952644125
 20
1357.0684649404
 30
0.0
 11
-114.6683373228
 21
1358.4023833628
 31
0.0
  0
CIRCLE
  5
9B
330
1F
100
AcDbEntity
  8
0
  6
Continuous
 62
     7
370
    15
100
AcDbCircle
 10
-112.2265853659
 20
1359.9637863394
 30
0.0
 40
7.785000000000019
  0
LINE
  5
9C
330
1F
100
AcDbEntity
  8
0
  6
Continuous
 62
     7
370
    15
100
AcDbLine
 10
-109.6535005346
 20
1358.6298682149
 30
0.0
 11
-112.0952644125
 21
1357.0684649404
 31
0.0
  0
ARC
  5
9D
330
1F
100
AcDbEntity
  8
0
  6
Continuous
 62
     7
370
    15
100
AcDbCircle
 10
-112.2265853659
 20
1359.9637863394
 30
0.0
 40
2.510000000000019
100
AcDbArc
 50
302.5973255621
 51
2.5973255621
  0
ARC
  5
9E
330
1F
100
AcDbEntity
  8
0
  6
Continuous
 62
     7
370
    15
100
AcDbCircle
 10
-112.2265853659
 20
1359.9637863394
 30
0.0
 40
2.510000000000009
100
AcDbArc
 50
182.5973255621
 51
242.5973255621
  0
ARC
  5
9F
330
1F
100
AcDbEntity
  8
0
  6
Continuous
 62
     7
370
    15
100
AcDbCircle
 10
-112.2265853659
 20
1359.9637863394
 30
0.0
 40
2.51
100
AcDbArc
 50
242.5973255621
 51
302.5973255621
  0
ARC
  5
A0
330
1F
100
AcDbEntity
  8
0
  6
Continuous
 62
     7
370
    15
100
AcDbCircle
 10
-112.2265853659
 20
1359.9637863394
 30
0.0
 40
2.510000000000165
100
AcDbArc
 50
122.5973255621
 51
182.5973255621
  0
ARC
  5
A1
330
1F
100
AcDbEntity
  8
0
  6
Continuous
 62
     7
370
    15
100
AcDbCircle
 10
-112.2265853659
 20
1359.9637863394
 30
0.0
 40
2.510000000000165
100
AcDbArc
 50
62.5973255621
 51
122.5973255621
  0
ARC
  5
A2
330
1F
100
AcDbEntity
  8
0
  6
Continuous
 62
     7
370
    15
100
AcDbCircle
 10
-112.2265853659
 20
1359.9637863394
 30
0.0
 40
2.510000000000019
100
AcDbArc
 50
2.5973255621
 51
62.5973255621
  0
LINE
  5
A3
330
1F
100
AcDbEntity
  8
0
  6
Continuous
 62
     7
370
    15
100
AcDbLine
 10
-809.784834899
 20
1361.5251899119
 30
0.0
 11
-809.6534960643
 21
1358.6298682149
 31
0.0
  0
LINE
  5
A4
330
1F
100
AcDbEntity
  8
0
  6
Continuous
 62
     7
370
    15
100
AcDbLine
 10
-814.668340303
 20
1358.4023833628
 30
0.0
 11
-814.7996791378
 21
1361.2977013346
 31
0.0
  0
LINE
  5
A5
330
1F
100
AcDbEntity
  8
0
  6
Continuous
 62
     7
370
    15
100
AcDbLine
 10
-809.6534960643
 20
1358.6298682149
 30
0.0
 11
-812.095245041
 21
1357.0684649404
 31
0.0
  0
CIRCLE
  5
A6
330
1F
100
AcDbEntity
  8
0
  6
Continuous
 62
     7
370
    15
100
AcDbCircle
 10
-812.2265853659
 20
1359.9637863394
 30
0.0
 40
7.785000000000118
  0
LINE
  5
A7
330
1F
100
AcDbEntity
  8
0
  6
Continuous
 62
     7
370
    15
100
AcDbLine
 10
-812.3579227105
 20
1362.8591083344
 30
0.0
 11
-809.784834899
 21
1361.5251899119
 31
0.0
  0
LINE
  5
A8
330
1F
100
AcDbEntity
  8
0
  6
Continuous
 62
     7
370
    15
100
AcDbLine
 10
-812.095245041
 20
1357.0684649404
 30
0.0
 11
-814.668340303
 21
1358.4023833628
 31
0.0
  0
LINE
  5
A9
330
1F
100
AcDbEntity
  8
0
  6
Continuous
 62
     7
370
    15
100
AcDbLine
 10
-814.7996791378
 20
1361.2977013346
 30
0.0
 11
-812.3579227105
 21
1362.8591083344
 31
0.0
  0
ARC
  5
AA
330
1F
100
AcDbEntity
  8
0
  6
Continuous
 62
     7
370
    15
100
AcDbCircle
 10
-812.2265853659
 20
1359.9637863394
 30
0.0
 40
2.510000000000226
100
AcDbArc
 50
302.5973255621
 51
2.5973255621
  0
ARC
  5
AB
330
1F
100
AcDbEntity
  8
0
  6
Continuous
 62
     7
370
    15
100
AcDbCircle
 10
-812.2265853659
 20
1359.9637863394
 30
0.0
 40
2.510000000000226
100
AcDbArc
 50
242.5973255621
 51
302.5973255621
  0
ARC
  5
AC
330
1F
100
AcDbEntity
  8
0
  6
Continuous
 62
     7
370
    15
100
AcDbCircle
 10
-812.2265853659
 20
1359.9637863394
 30
0.0
 40
2.510000000000034
100
AcDbArc
 50
182.5973255621
 51
242.5973255621
  0
ARC
  5
AD
330
1F
100
AcDbEntity
  8
0
  6
Continuous
 62
     7
370
    15
100
AcDbCircle
 10
-812.2265853659
 20
1359.9637863394
 30
0.0
 40
2.510000000000034
100
AcDbArc
 50
122.5973255621
 51
182.5973255621
  0
ARC
  5
AE
330
1F
100
AcDbEntity
  8
0
  6
Continuous
 62
     7
370
    15
100
AcDbCircle
 10
-812.2265853659
 20
1359.9637863394
 30
0.0
 40
2.510000000000034
100
AcDbArc
 50
62.5973255621
 51
122.5973255621
  0
ARC
  5
AF
330
1F
100
AcDbEntity
  8
0
  6
Continuous
 62
     7
370
    15
100
AcDbCircle
 10
-812.2265853659
 20
1359.9637863394
 30
0.0
 40
2.510000000000023
100
AcDbArc
 50
2.5973255621
 51
62.5973255621
  0
LINE
  5
B0
330
1F
100
AcDbEntity
  8
0
  6
Continuous
 62
     7
370
    15
100
AcDbLine
 10
-109.7848095671
 20
1495.5251932498
 30
0.0
 11
-109.6535005346
 21
1492.6298678275
 31
0.0
  0
LINE
  5
B1
330
1F
100
AcDbEntity
  8
0
  6
Continuous
 62
     7
370
    15
100
AcDbLine
 10
-112.357942082
 20
1496.859107947
 30
0.0
 11
-109.7848095671
 21
1495.5251932498
 31
0.0
  0
LINE
  5
B2
330
1F
100
AcDbEntity
  8
0
  6
Continuous
 62
     7
370
    15
100
AcDbLine
 10
-114.7997059599
 20
1495.2977046724
 30
0.0
 11
-112.357942082
 21
1496.859107947
 31
0.0
  0
LINE
  5
B3
330
1F
100
AcDbEntity
  8
0
  6
Continuous
 62
     7
370
    15
100
AcDbLine
 10
-114.6683373228
 20
1492.4023792501
 30
0.0
 11
-114.7997059599
 21
1495.2977046724
 31
0.0
  0
LINE
  5
B4
330
1F
100
AcDbEntity
  8
0
  6
Continuous
 62
     7
370
    15
100
AcDbLine
 10
-112.0952644125
 20
1491.068464553
 30
0.0
 11
-114.6683373228
 21
1492.4023792501
 31
0.0
  0
CIRCLE
  5
B5
330
1F
100
AcDbEntity
  8
0
  6
Continuous
 62
     7
370
    15
100
AcDbCircle
 10
-112.2265853659
 20
1493.9637863394
 30
0.0
 40
7.785000000000005
  0
LINE
  5
B6
330
1F
100
AcDbEntity
  8
0
  6
Continuous
 62
     7
370
    15
100
AcDbLine
 10
-109.6535005346
 20
1492.6298678275
 30
0.0
 11
-112.0952644125
 21
1491.068464553
 31
0.0
  0
ARC
  5
B7
330
1F
100
AcDbEntity
  8
0
  6
Continuous
 62
     7
370
    15
100
AcDbCircle
 10
-112.2265853659
 20
1493.9637863394
 30
0.0
 40
2.510000000000165
100
AcDbArc
 50
302.5973255621
 51
2.5973255621
  0
ARC
  5
B8
330
1F
100
AcDbEntity
  8
0
  6
Continuous
 62
     7
370
    15
100
AcDbCircle
 10
-112.2265853659
 20
1493.9637863394
 30
0.0
 40
2.510000000000165
100
AcDbArc
 50
242.5973255621
 51
302.5973255621
  0
ARC
  5
B9
330
1F
100
AcDbEntity
  8
0
  6
Continuous
 62
     7
370
    15
100
AcDbCircle
 10
-112.2265853659
 20
1493.9637863394
 30
0.0
 40
2.510000000000034
100
AcDbArc
 50
182.5973255621
 51
242.5973255621
  0
ARC
  5
BA
330
1F
100
AcDbEntity
  8
0
  6
Continuous
 62
     7
370
    15
100
AcDbCircle
 10
-112.2265853659
 20
1493.9637863394
 30
0.0
 40
2.510000000000034
100
AcDbArc
 50
122.5973255621
 51
182.5973255621
  0
ARC
  5
BB
330
1F
100
AcDbEntity
  8
0
  6
Continuous
 62
     7
370
    15
100
AcDbCircle
 10
-112.2265853659
 20
1493.9637863394
 30
0.0
 40
2.51
100
AcDbArc
 50
62.5973255621
 51
122.5973255621
  0
ARC
  5
BC
330
1F
100
AcDbEntity
  8
0
  6
Continuous
 62
     7
370
    15
100
AcDbCircle
 10
-112.2265853659
 20
1493.9637863394
 30
0.0
 40
2.510000000000009
100
AcDbArc
 50
2.5973255621
 51
62.5973255621
  0
LINE
  5
BD
330
1F
100
AcDbEntity
  8
0
  6
Continuous
 62
     7
370
    15
100
AcDbLine
 10
-809.784834899
 20
1495.5251932498
 30
0.0
 11
-809.6534960643
 21
1492.6298678275
 31
0.0
  0
LINE
  5
BE
330
1F
100
AcDbEntity
  8
0
  6
Continuous
 62
     7
370
    15
100
AcDbLine
 10
-812.3579227105
 20
1496.859107947
 30
0.0
 11
-809.784834899
 21
1495.5251932498
 31
0.0
  0
LINE
  5
BF
330
1F
100
AcDbEntity
  8
0
  6
Continuous
 62
     7
370
    15
100
AcDbLine
 10
-814.668340303
 20
1492.4023792501
 30
0.0
 11
-814.7996791378
 21
1495.2977046724
 31
0.0
  0
LINE
  5
C0
330
1F
100
AcDbEntity
  8
0
  6
Continuous
 62
     7
370
    15
100
AcDbLine
 10
-812.095245041
 20
1491.068464553
 30
0.0
 11
-814.668340303
 21
1492.4023792501
 31
0.0
  0
LINE
  5
C1
330
1F
100
AcDbEntity
  8
0
  6
Continuous
 62
     7
370
    15
100
AcDbLine
 10
-809.6534960643
 20
1492.6298678275
 30
0.0
 11
-812.095245041
 21
1491.068464553
 31
0.0
  0
CIRCLE
  5
C2
330
1F
100
AcDbEntity
  8
0
  6
Continuous
 62
     7
370
    15
100
AcDbCircle
 10
-812.2265853659
 20
1493.9637863394
 30
0.0
 40
7.784999999999891
  0
LINE
  5
C3
330
1F
100
AcDbEntity
  8
0
  6
Continuous
 62
     7
370
    15
100
AcDbLine
 10
-814.7996791378
 20
1495.2977046724
 30
0.0
 11
-812.3579227105
 21
1496.859107947
 31
0.0
  0
ARC
  5
C4
330
1F
100
AcDbEntity
  8
0
  6
Continuous
 62
     7
370
    15
100
AcDbCircle
 10
-812.2265853659
 20
1493.9637863394
 30
0.0
 40
2.510000000000226
100
AcDbArc
 50
242.5973255621
 51
302.5973255621
  0
ARC
  5
C5
330
1F
100
AcDbEntity
  8
0
  6
Continuous
 62
     7
370
    15
100
AcDbCircle
 10
-812.2265853659
 20
1493.9637863394
 30
0.0
 40
2.510000000000006
100
AcDbArc
 50
62.5973255621
 51
122.5973255621
  0
ARC
  5
C6
330
1F
100
AcDbEntity
  8
0
  6
Continuous
 62
     7
370
    15
100
AcDbCircle
 10
-812.2265853659
 20
1493.9637863394
 30
0.0
 40
2.510000000000226
100
AcDbArc
 50
302.5973255621
 51
2.5973255621
  0
ARC
  5
C7
330
1F
100
AcDbEntity
  8
0
  6
Continuous
 62
     7
370
    15
100
AcDbCircle
 10
-812.2265853659
 20
1493.9637863394
 30
0.0
 40
2.510000000000044
100
AcDbArc
 50
122.5973255621
 51
182.5973255621
  0
ARC
  5
C8
330
1F
100
AcDbEntity
  8
0
  6
Continuous
 62
     7
370
    15
100
AcDbCircle
 10
-812.2265853659
 20
1493.9637863394
 30
0.0
 40
2.510000000000044
100
AcDbArc
 50
182.5973255621
 51
242.5973255621
  0
ARC
  5
C9
330
1F
100
AcDbEntity
  8
0
  6
Continuous
 62
     7
370
    15
100
AcDbCircle
 10
-812.2265853659
 20
1493.9637863394
 30
0.0
 40
2.510000000000023
100
AcDbArc
 50
2.5973255621
 51
62.5973255621
  0
LINE
  5
CA
330
1F
100
AcDbEntity
  8
0
  6
Continuous
 62
     7
370
    15
100
AcDbLine
 10
-112.0952644125
 20
1431.0684658941
 30
0.0
 11
-114.6683373228
 21
1432.4023824539
 31
0.0
  0
CIRCLE
  5
CB
330
1F
100
AcDbEntity
  8
0
  6
Continuous
 62
     7
370
    15
100
AcDbCircle
 10
-112.2265853659
 20
1433.9637863394
 30
0.0
 40
7.785000000000009
  0
LINE
  5
CC
330
1F
100
AcDbEntity
  8
0
  6
Continuous
 62
     7
370
    15
100
AcDbLine
 10
-109.6535005346
 20
1432.6298691686
 30
0.0
 11
-112.0952644125
 21
1431.0684658941
 31
0.0
  0
LINE
  5
CD
330
1F
100
AcDbEntity
  8
0
  6
Continuous
 62
     7
370
    15
100
AcDbLine
 10
-112.357942082
 20
1436.8591074254
 30
0.0
 11
-109.7848095671
 21
1435.5251908656
 31
0.0
  0
LINE
  5
CE
330
1F
100
AcDbEntity
  8
0
  6
Continuous
 62
     7
370
    15
100
AcDbLine
 10
-109.7848095671
 20
1435.5251908656
 30
0.0
 11
-109.6535005346
 21
1432.6298691686
 31
0.0
  0
LINE
  5
CF
330
1F
100
AcDbEntity
  8
0
  6
Continuous
 62
     7
370
    15
100
AcDbLine
 10
-114.7997059599
 20
1435.2977022882
 30
0.0
 11
-112.357942082
 21
1436.8591074254
 31
0.0
  0
LINE
  5
D0
330
1F
100
AcDbEntity
  8
0
  6
Continuous
 62
     7
370
    15
100
AcDbLine
 10
-114.6683373228
 20
1432.4023824539
 30
0.0
 11
-114.7997059599
 21
1435.2977022882
 31
0.0
  0
ARC
  5
D1
330
1F
100
AcDbEntity
  8
0
  6
Continuous
 62
     7
370
    15
100
AcDbCircle
 10
-112.2265853659
 20
1433.9637863394
 30
0.0
 40
2.510000000000019
100
AcDbArc
 50
302.5973255621
 51
2.5973255621
  0
ARC
  5
D2
330
1F
100
AcDbEntity
  8
0
  6
Continuous
 62
     7
370
    15
100
AcDbCircle
 10
-112.2265853659
 20
1433.9637863394
 30
0.0
 40
2.51
100
AcDbArc
 50
242.5973255621
 51
302.5973255621
  0
ARC
  5
D3
330
1F
100
AcDbEntity
  8
0
  6
Continuous
 62
     7
370
    15
100
AcDbCircle
 10
-112.2265853659
 20
1433.9637863394
 30
0.0
 40
2.510000000000019
100
AcDbArc
 50
182.5973255621
 51
242.5973255621
  0
ARC
  5
D4
330
1F
100
AcDbEntity
  8
0
  6
Continuous
 62
     7
370
    15
100
AcDbCircle
 10
-112.2265853659
 20
1433.9637863394
 30
0.0
 40
2.510000000000019
100
AcDbArc
 50
122.5973255621
 51
182.5973255621
  0
ARC
  5
D5
330
1F
100
AcDbEntity
  8
0
  6
Continuous
 62
     7
370
    15
100
AcDbCircle
 10
-112.2265853659
 20
1433.9637863394
 30
0.0
 40
2.51
100
AcDbArc
 50
62.5973255621
 51
122.5973255621
  0
ARC
  5
D6
330
1F
100
AcDbEntity
  8
0
  6
Continuous
 62
     7
370
    15
100
AcDbCircle
 10
-112.2265853659
 20
1433.9637863394
 30
0.0
 40
2.510000000000019
100
AcDbArc
 50
2.5973255621
 51
62.5973255621
  0
LINE
  5
D7
330
1F
100
AcDbEntity
  8
0
  6
Continuous
 62
     7
370
    15
100
AcDbLine
 10
-809.784834899
 20
1435.5251908656
 30
0.0
 11
-809.6534960643
 21
1432.6298691686
 31
0.0
  0
LINE
  5
D8
330
1F
100
AcDbEntity
  8
0
  6
Continuous
 62
     7
370
    15
100
AcDbLine
 10
-812.3579227105
 20
1436.8591074254
 30
0.0
 11
-809.784834899
 21
1435.5251908656
 31
0.0
  0
LINE
  5
D9
330
1F
100
AcDbEntity
  8
0
  6
Continuous
 62
     7
370
    15
100
AcDbLine
 10
-814.7996791378
 20
1435.2977022882
 30
0.0
 11
-812.3579227105
 21
1436.8591074254
 31
0.0
  0
LINE
  5
DA
330
1F
100
AcDbEntity
  8
0
  6
Continuous
 62
     7
370
    15
100
AcDbLine
 10
-814.668340303
 20
1432.4023824539
 30
0.0
 11
-814.7996791378
 21
1435.2977022882
 31
0.0
  0
LINE
  5
DB
330
1F
100
AcDbEntity
  8
0
  6
Continuous
 62
     7
370
    15
100
AcDbLine
 10
-812.095245041
 20
1431.0684658941
 30
0.0
 11
-814.668340303
 21
1432.4023824539
 31
0.0
  0
LINE
  5
DC
330
1F
100
AcDbEntity
  8
0
  6
Continuous
 62
     7
370
    15
100
AcDbLine
 10
-809.6534960643
 20
1432.6298691686
 30
0.0
 11
-812.095245041
 21
1431.0684658941
 31
0.0
  0
CIRCLE
  5
DD
330
1F
100
AcDbEntity
  8
0
  6
Continuous
 62
     7
370
    15
100
AcDbCircle
 10
-812.2265853659
 20
1433.9637863394
 30
0.0
 40
7.785000000000118
  0
ARC
  5
DE
330
1F
100
AcDbEntity
  8
0
  6
Continuous
 62
     7
370
    15
100
AcDbCircle
 10
-812.2265853659
 20
1433.9637863394
 30
0.0
 40
2.510000000000006
100
AcDbArc
 50
242.5973255621
 51
302.5973255621
  0
ARC
  5
DF
330
1F
100
AcDbEntity
  8
0
  6
Continuous
 62
     7
370
    15
100
AcDbCircle
 10
-812.2265853659
 20
1433.9637863394
 30
0.0
 40
2.510000000000226
100
AcDbArc
 50
62.5973255621
 51
122.5973255621
  0
ARC
  5
E0
330
1F
100
AcDbEntity
  8
0
  6
Continuous
 62
     7
370
    15
100
AcDbCircle
 10
-812.2265853659
 20
1433.9637863394
 30
0.0
 40
2.510000000000044
100
AcDbArc
 50
302.5973255621
 51
2.5973255621
  0
ARC
  5
E1
330
1F
100
AcDbEntity
  8
0
  6
Continuous
 62
     7
370
    15
100
AcDbCircle
 10
-812.2265853659
 20
1433.9637863394
 30
0.0
 40
2.510000000000023
100
AcDbArc
 50
182.5973255621
 51
242.5973255621
  0
ARC
  5
E2
330
1F
100
AcDbEntity
  8
0
  6
Continuous
 62
     7
370
    15
100
AcDbCircle
 10
-812.2265853659
 20
1433.9637863394
 30
0.0
 40
2.510000000000226
100
AcDbArc
 50
122.5973255621
 51
182.5973255621
  0
ARC
  5
E3
330
1F
100
AcDbEntity
  8
0
  6
Continuous
 62
     7
370
    15
100
AcDbCircle
 10
-812.2265853659
 20
1433.9637863394
 30
0.0
 40
2.510000000000044
100
AcDbArc
 50
2.5973255621
 51
62.5973255621
  0
LINE
  5
E4
330
1F
100
AcDbEntity
  8
0
  6
Continuous
 62
     7
370
    15
100
AcDbLine
 10
-848.8931559697
 20
1454.2580180224
 30
0.0
 11
-846.6022514478
 21
1452.5015808996
 31
0.0
  0
LWPOLYLINE
  5
E5
330
1F
100
AcDbEntity
  8
0
  6
Continuous
 62
     7
370
    15
100
AcDbPolyline
 90
        9
 70
   128
 43
0.0
 10
-846.6322996393
 20
1452.2726059314
 10
-846.6264360324
 20
1452.3172758873
 10
-846.6208033934
 20
1452.3602322098
 10
-846.6156028882
 20
1452.3998171445
 10
-846.6110505834
 20
1452.4345182236
 10
-846.6073178426
 20
1452.4629943426
 10
-846.604538776
 20
1452.4841539915
 10
-846.6028251425
 20
1452.4971813317
 10
-846.6022514478
 20
1452.5015808996
  0
LINE
  5
E6
330
1F
100
AcDbEntity
  8
0
  6
Continuous
 62
     7
370
    15
100
AcDbLine
 10
-846.6322996393
 20
1452.2726059314
 30
0.0
 11
-849.1064809934
 21
1454.169557279
 31
0.0
  0
LWPOLYLINE
  5
E7
330
1F
100
AcDbEntity
  8
0
  6
Continuous
 62
     7
370
    15
100
AcDbPolyline
 90
        9
 70
   128
 43
0.0
 10
-848.8931559697
 20
1454.2580180224
 10
-848.897253789
 20
1454.25631929
 10
-848.9093982354
 20
1454.2512864228
 10
-848.9291124717
 20
1454.2431094106
 10
-848.9556365386
 20
1454.2321086284
 10
-848.9879646078
 20
1454.2187050339
 10
-849.0248449818
 20
1454.2034089919
 10
-849.0648695007
 20
1454.1868165489
 10
-849.1064809934
 20
1454.169557279
  0
LINE
  5
E8
330
1F
100
AcDbEntity
  8
0
  6
Continuous
 62
     7
370
    15
100
AcDbLine
 10
-848.517497696
 20
1457.1202218886
 30
0.0
 11
-848.8931559697
 21
1454.2580180224
 31
0.0
  0
LINE
  5
E9
330
1F
100
AcDbEntity
  8
0
  6
Continuous
 62
     7
370
    15
100
AcDbLine
 10
-849.1064809934
 20
1454.169557279
 30
0.0
 11
-848.7007670775
 21
1457.2607361134
 31
0.0
  0
LWPOLYLINE
  5
EA
330
1F
100
AcDbEntity
  8
0
  6
Continuous
 62
     7
370
    15
100
AcDbPolyline
 90
        9
 70
   128
 43
0.0
 10
-848.517497696
 20
1457.1202218886
 10
-848.52101437
 20
1457.1229227241
 10
-848.5314451829
 20
1457.1309171971
 10
-848.5483803526
 20
1457.143903559
 10
-848.5711716786
 20
1457.1613788958
 10
-848.5989474431
 20
1457.1826726552
 10
-848.6306347624
 20
1457.2069652732
 10
-848.6650117412
 20
1457.2333254274
 10
-848.7007670775
 20
1457.2607361134
  0
LINE
  5
EB
330
1F
100
AcDbEntity
  8
0
  6
Continuous
 62
     7
370
    15
100
AcDbLine
 10
-843.346683003
 20
1456.5580159779
 30
0.0
 11
-843.7524043694
 21
1453.4668334182
 31
0.0
  0
LINE
  5
EC
330
1F
100
AcDbEntity
  8
0
  6
Continuous
 62
     7
370
    15
100
AcDbLine
 10
-845.8208718077
 20
1458.4549673255
 30
0.0
 11
-843.346683003
 21
1456.5580159779
 31
0.0
  0
LINE
  5
ED
330
1F
100
AcDbEntity
  8
0
  6
Continuous
 62
     7
370
    15
100
AcDbLine
 10
-848.7007670775
 20
1457.2607361134
 30
0.0
 11
-845.8208718077
 21
1458.4549673255
 31
0.0
  0
LINE
  5
EE
330
1F
100
AcDbEntity
  8
0
  6
Continuous
 62
     7
370
    15
100
AcDbLine
 10
-843.7524043694
 20
1453.4668334182
 30
0.0
 11
-846.6322996393
 21
1452.2726059314
 31
0.0
  0
CIRCLE
  5
EF
330
1F
100
AcDbEntity
  8
0
  6
Continuous
 62
     7
370
    15
100
AcDbCircle
 10
-846.2265853659
 20
1455.3637863394
 30
0.0
 40
12.91715728752536
  0
LINE
  5
F0
330
1F
100
AcDbEntity
  8
0
  6
Continuous
 62
     7
370
    15
100
AcDbLine
 10
-845.8509199992
 20
1458.225988632
 30
0.0
 11
-848.517497696
 21
1457.1202218886
 31
0.0
  0
LWPOLYLINE
  5
F1
330
1F
100
AcDbEntity
  8
0
  6
Continuous
 62
     7
370
    15
100
AcDbPolyline
 90
       10
 70
   128
 43
0.0
 10
-845.8509199992
 20
1458.225988632
 10
-845.8504655138
 20
1458.2294680532
 10
-845.8491095081
 20
1458.2397982832
 10
-845.8468966857
 20
1458.2566663977
 10
-845.8438866511
 20
1458.2795620318
 10
-845.8401837126
 20
1458.3077848311
 10
-845.8358921781
 20
1458.3404779788
 10
-845.8311461583
 20
1458.3766505476
 10
-845.8260872141
 20
1458.4152035769
 10
-845.8208718077
 20
1458.4549673255
  0
LINE
  5
F2
330
1F
100
AcDbEntity
  8
0
  6
Continuous
 62
     7
370
    15
100
AcDbLine
 10
-846.6022514478
 20
1452.5015808996
 30
0.0
 11
-843.935673751
 21
1453.6073513683
 31
0.0
  0
LWPOLYLINE
  5
F3
330
1F
100
AcDbEntity
  8
0
  6
Continuous
 62
     7
370
    15
100
AcDbPolyline
 90
       10
 70
   128
 43
0.0
 10
-843.7524043694
 20
1453.4668334182
 10
-843.7842257992
 20
1453.4912340697
 10
-843.815086104
 20
1453.5148933884
 10
-843.8440390602
 20
1453.5370923932
 10
-843.8702054993
 20
1453.5571568068
 10
-843.8927956596
 20
1453.5744756814
 10
-843.9111240879
 20
1453.5885237511
 10
-843.9246245399
 20
1453.5988763328
 10
-843.9328946844
 20
1453.6052167769
 10
-843.935673751
 20
1453.6073513683
  0
LINE
  5
F4
330
1F
100
AcDbEntity
  8
0
  6
Continuous
 62
     7
370
    15
100
AcDbLine
 10
-843.5600154773
 20
1456.4695552345
 30
0.0
 11
-845.8509199992
 21
1458.225988632
 31
0.0
  0
LWPOLYLINE
  5
F5
330
1F
100
AcDbEntity
  8
0
  6
Continuous
 62
     7
370
    15
100
AcDbPolyline
 90
       10
 70
   128
 43
0.0
 10
-843.346683003
 20
1456.5580159779
 10
-843.3837272898
 20
1456.5426528807
 10
-843.4196465388
 20
1456.5277591701
 10
-843.4533529654
 20
1456.5137856062
 10
-843.4838109389
 20
1456.5011531468
 10
-843.5101040378
 20
1456.4902492221
 10
-843.5314350501
 20
1456.481405383
 10
-843.5471483246
 20
1456.4748898502
 10
-843.5567744747
 20
1456.470896339
 10
-843.5600154773
 20
1456.4695552345
  0
CIRCLE
  5
F6
330
1F
100
AcDbEntity
  8
0
  6
Continuous
 62
     7
370
    15
100
AcDbCircle
 10
-846.2265853659
 20
1455.3637863394
 30
0.0
 40
13.0585786437627
  0
LINE
  5
F7
330
1F
100
AcDbEntity
  8
0
  6
Continuous
 62
     7
370
    15
100
AcDbLine
 10
-843.935673751
 20
1453.6073513683
 30
0.0
 11
-843.5600154773
 21
1456.4695552345
 31
0.0
  0
CIRCLE
  5
F8
330
1F
100
AcDbEntity
  8
0
  6
Continuous
 62
     7
370
    15
100
AcDbCircle
 10
-846.2265853659
 20
1455.3637863394
 30
0.0
 40
14.94142135623733
  0
CIRCLE
  5
F9
330
1F
100
AcDbEntity
  8
0
  6
Continuous
 62
     7
370
    15
100
AcDbCircle
 10
-846.2265853659
 20
1455.3637863394
 30
0.0
 40
15.00000000000001
  0
LINE
  5
FA
330
1F
100
AcDbEntity
  8
0
  6
Continuous
 62
     7
370
    15
100
AcDbLine
 10
1323.4826050028
 20
1457.1202218886
 30
0.0
 11
1323.1068573221
 21
1454.2580180224
 31
0.0
  0
LINE
  5
FB
330
1F
100
AcDbEntity
  8
0
  6
Continuous
 62
     7
370
    15
100
AcDbLine
 10
1322.8934726938
 20
1454.169557279
 30
0.0
 11
1323.1068573221
 21
1454.2580180224
 31
0.0
  0
LINE
  5
FC
330
1F
100
AcDbEntity
  8
0
  6
Continuous
 62
     7
370
    15
100
AcDbLine
 10
1322.8934726938
 20
1454.169557279
 30
0.0
 11
1323.2992611155
 21
1457.2607361134
 31
0.0
  0
ARC
  5
FD
330
1F
100
AcDbEntity
  8
0
  6
Continuous
 62
     7
370
    15
100
AcDbCircle
 10
1371.3138117857
 20
1519.7205672697
 30
0.0
 40
78.78215270058894
100
AcDbArc
 50
232.449550768
 51
232.6175470672
  0
LINE
  5
FE
330
1F
100
AcDbEntity
  8
0
  6
Continuous
 62
     7
370
    15
100
AcDbLine
 10
1328.4400425181
 20
1456.4695552345
 30
0.0
 11
1326.1490783915
 21
1458.225988632
 31
0.0
  0
LWPOLYLINE
  5
FF
330
1F
100
AcDbEntity
  8
0
  6
Continuous
 62
     7
370
    15
100
AcDbPolyline
 90
       10
 70
   128
 43
0.0
 10
1326.1490783915
 20
1458.225988632
 10
1326.1495552286
 20
1458.2294680532
 10
1326.1509857401
 20
1458.2397982832
 10
1326.1531315073
 20
1458.2566663977
 10
1326.1559925303
 20
1458.2795620318
 10
1326.1598072275
 20
1458.3077848311
 10
1326.164098762
 20
1458.3404779788
 10
1326.1688671335
 20
1458.3766505476
 10
1326.1738739237
 20
1458.4152035769
 10
1326.1791191324
 20
1458.4549673255
  0
LINE
  5
100
330
1F
100
AcDbEntity
  8
0
  6
Continuous
 62
     7
370
    15
100
AcDbLine
 10
1326.1791191324
 20
1458.4549673255
 30
0.0
 11
1328.6534271464
 21
1456.5580159779
 31
0.0
  0
LINE
  5
101
330
1F
100
AcDbEntity
  8
0
  6
Continuous
 62
     7
370
    15
100
AcDbLine
 10
1328.4400425181
 20
1456.4695552345
 30
0.0
 11
1328.6534271464
 21
1456.5580159779
 31
0.0
  0
LINE
  5
102
330
1F
100
AcDbEntity
  8
0
  6
Continuous
 62
     7
370
    15
100
AcDbLine
 10
1328.6534271464
 20
1456.5580159779
 30
0.0
 11
1328.2476387247
 21
1453.4668334182
 31
0.0
  0
LINE
  5
103
330
1F
100
AcDbEntity
  8
0
  6
Continuous
 62
     7
370
    15
100
AcDbLine
 10
1323.2992611155
 20
1457.2607361134
 30
0.0
 11
1326.1791191324
 21
1458.4549673255
 31
0.0
  0
LINE
  5
104
330
1F
100
AcDbEntity
  8
0
  6
Continuous
 62
     7
370
    15
100
AcDbLine
 10
1325.3677807078
 20
1452.2726059314
 30
0.0
 11
1322.8934726938
 21
1454.169557279
 31
0.0
  0
LINE
  5
105
330
1F
100
AcDbEntity
  8
0
  6
Continuous
 62
     7
370
    15
100
AcDbLine
 10
1328.2476387247
 20
1453.4668334182
 30
0.0
 11
1325.3677807078
 21
1452.2726059314
 31
0.0
  0
CIRCLE
  5
106
330
1F
100
AcDbEntity
  8
0
  6
Continuous
 62
     7
370
    15
100
AcDbCircle
 10
1325.7734146341
 20
1455.3637863394
 30
0.0
 40
12.91715728752534
  0
LWPOLYLINE
  5
107
330
1F
100
AcDbEntity
  8
0
  6
Continuous
 62
     7
370
    15
100
AcDbPolyline
 90
        9
 70
   128
 43
0.0
 10
1325.3677807078
 20
1452.2726059314
 10
1325.3735027537
 20
1452.3172758873
 10
1325.3792247996
 20
1452.3602322098
 10
1325.3844700083
 20
1452.3998171445
 10
1325.3889999613
 20
1452.4345182236
 10
1325.39257624
 20
1452.4629943426
 10
1325.3954372629
 20
1452.4841539915
 10
1325.397106193
 20
1452.4971813317
 10
1325.3978214487
 20
1452.5015808996
  0
LINE
  5
108
330
1F
100
AcDbEntity
  8
0
  6
Continuous
 62
     7
370
    15
100
AcDbLine
 10
1325.3978214487
 20
1452.5015808996
 30
0.0
 11
1328.0642948374
 21
1453.6073513683
 31
0.0
  0
LWPOLYLINE
  5
109
330
1F
100
AcDbEntity
  8
0
  6
Continuous
 62
     7
370
    15
100
AcDbPolyline
 90
       10
 70
   128
 43
0.0
 10
1328.2476387247
 20
1453.4668334182
 10
1328.2156906351
 20
1453.4912340697
 10
1328.1849346384
 20
1453.5148933884
 10
1328.1558475718
 20
1453.5370923932
 10
1328.1298599466
 20
1453.5571568068
 10
1328.1072101816
 20
1453.5744756814
 10
1328.088851951
 20
1453.5885237511
 10
1328.075262092
 20
1453.5988763328
 10
1328.0671558603
 20
1453.6052167769
 10
1328.0642948374
 20
1453.6073513683
  0
CIRCLE
  5
10A
330
1F
100
AcDbEntity
  8
0
  6
Continuous
 62
     7
370
    15
100
AcDbCircle
 10
1325.7734146341
 20
1455.3637863394
 30
0.0
 40
13.05857864376278
  0
LINE
  5
10B
330
1F
100
AcDbEntity
  8
0
  6
Continuous
 62
     7
370
    15
100
AcDbLine
 10
1328.0642948374
 20
1453.6073513683
 30
0.0
 11
1328.4400425181
 21
1456.4695552345
 31
0.0
  0
LINE
  5
10C
330
1F
100
AcDbEntity
  8
0
  6
Continuous
 62
     7
370
    15
100
AcDbLine
 10
1326.1490783915
 20
1458.225988632
 30
0.0
 11
1323.4826050028
 21
1457.1202218886
 31
0.0
  0
LINE
  5
10D
330
1F
100
AcDbEntity
  8
0
  6
Continuous
 62
     7
370
    15
100
AcDbLine
 10
1323.1068573221
 20
1454.2580180224
 30
0.0
 11
1325.3978214487
 21
1452.5015808996
 31
0.0
  0
CIRCLE
  5
10E
330
1F
100
AcDbEntity
  8
0
  6
Continuous
 62
     7
370
    15
100
AcDbCircle
 10
1325.7734146341
 20
1455.3637863394
 30
0.0
 40
14.94142135623763
  0
CIRCLE
  5
10F
330
1F
100
AcDbEntity
  8
0
  6
Continuous
 62
     7
370
    15
100
AcDbCircle
 10
1325.7734146341
 20
1455.3637863394
 30
0.0
 40
14.99999999999984
  0
CIRCLE
  5
110
330
1F
100
AcDbEntity
  8
0
  6
Continuous
 62
     7
370
    15
100
AcDbCircle
 10
-112.2265853659
 20
1359.9637863394
 30
0.0
 40
14.99999999999988
  0
CIRCLE
  5
111
330
1F
100
AcDbEntity
  8
0
  6
Continuous
 62
     7
370
    15
100
AcDbCircle
 10
-112.2265853659
 20
1359.9637863394
 30
0.0
 40
12.99999999999984
  0
CIRCLE
  5
112
330
1F
100
AcDbEntity
  8
0
  6
Continuous
 62
     7
370
    15
100
AcDbCircle
 10
-112.2265853659
 20
1359.9637863394
 30
0.0
 40
8.750000000000194
  0
CIRCLE
  5
113
330
1F
100
AcDbEntity
  8
0
  6
Continuous
 62
     7
370
    15
100
AcDbCircle
 10
-812.2265853659
 20
1304.9637863394
 30
0.0
 40
8.750000000000126
  0
CIRCLE
  5
114
330
1F
100
AcDbEntity
  8
0
  6
Continuous
 62
     7
370
    15
100
AcDbCircle
 10
-812.2265853659
 20
1304.9637863394
 30
0.0
 40
13.00000000000012
  0
CIRCLE
  5
115
330
1F
100
AcDbEntity
  8
0
  6
Continuous
 62
     7
370
    15
100
AcDbCircle
 10
-812.2265853659
 20
1304.9637863394
 30
0.0
 40
15.0
  0
CIRCLE
  5
116
330
1F
100
AcDbEntity
  8
0
  6
Continuous
 62
     7
370
    15
100
AcDbCircle
 10
-112.2265853659
 20
1304.9637863394
 30
0.0
 40
8.749999999999988
  0
CIRCLE
  5
117
330
1F
100
AcDbEntity
  8
0
  6
Continuous
 62
     7
370
    15
100
AcDbCircle
 10
-112.2265853659
 20
1304.9637863394
 30
0.0
 40
12.99999999999998
  0
CIRCLE
  5
118
330
1F
100
AcDbEntity
  8
0
  6
Continuous
 62
     7
370
    15
100
AcDbCircle
 10
-112.2265853659
 20
1304.9637863394
 30
0.0
 40
14.99999999999999
  0
CIRCLE
  5
119
330
1F
100
AcDbEntity
  8
0
  6
Continuous
 62
     7
370
    15
100
AcDbCircle
 10
-812.2265853659
 20
1359.9637863394
 30
0.0
 40
15.00000000000017
  0
CIRCLE
  5
11A
330
1F
100
AcDbEntity
  8
0
  6
Continuous
 62
     7
370
    15
100
AcDbCircle
 10
-812.2265853659
 20
1359.9637863394
 30
0.0
 40
13.00000000000008
  0
CIRCLE
  5
11B
330
1F
100
AcDbEntity
  8
0
  6
Continuous
 62
     7
370
    15
100
AcDbCircle
 10
-812.2265853659
 20
1359.9637863394
 30
0.0
 40
8.75000000000011
  0
CIRCLE
  5
11C
330
1F
100
AcDbEntity
  8
0
  6
Continuous
 62
     7
370
    15
100
AcDbCircle
 10
-112.2265853659
 20
1433.9637863394
 30
0.0
 40
8.749999999999998
  0
CIRCLE
  5
11D
330
1F
100
AcDbEntity
  8
0
  6
Continuous
 62
     7
370
    15
100
AcDbCircle
 10
-112.2265853659
 20
1433.9637863394
 30
0.0
 40
15.00000000000001
  0
CIRCLE
  5
11E
330
1F
100
AcDbEntity
  8
0
  6
Continuous
 62
     7
370
    15
100
AcDbCircle
 10
-112.2265853659
 20
1433.9637863394
 30
0.0
 40
12.99999999999997
  0
CIRCLE
  5
11F
330
1F
100
AcDbEntity
  8
0
  6
Continuous
 62
     7
370
    15
100
AcDbCircle
 10
-812.2265853659
 20
1493.9637863394
 30
0.0
 40
8.750000000000126
  0
CIRCLE
  5
120
330
1F
100
AcDbEntity
  8
0
  6
Continuous
 62
     7
370
    15
100
AcDbCircle
 10
-812.2265853659
 20
1493.9637863394
 30
0.0
 40
13.00000000000012
  0
CIRCLE
  5
121
330
1F
100
AcDbEntity
  8
0
  6
Continuous
 62
     7
370
    15
100
AcDbCircle
 10
-812.2265853659
 20
1493.9637863394
 30
0.0
 40
15.0
  0
CIRCLE
  5
122
330
1F
100
AcDbEntity
  8
0
  6
Continuous
 62
     7
370
    15
100
AcDbCircle
 10
-812.2265853659
 20
1433.9637863394
 30
0.0
 40
8.750000000000126
  0
CIRCLE
  5
123
330
1F
100
AcDbEntity
  8
0
  6
Continuous
 62
     7
370
    15
100
AcDbCircle
 10
-812.2265853659
 20
1433.9637863394
 30
0.0
 40
13.00000000000011
  0
CIRCLE
  5
124
330
1F
100
AcDbEntity
  8
0
  6
Continuous
 62
     7
370
    15
100
AcDbCircle
 10
-812.2265853659
 20
1433.9637863394
 30
0.0
 40
14.99999999999999
  0
CIRCLE
  5
125
330
1F
100
AcDbEntity
  8
0
  6
Continuous
 62
     7
370
    15
100
AcDbCircle
 10
-112.2265853659
 20
1493.9637863394
 30
0.0
 40
8.749999999999998
  0
CIRCLE
  5
126
330
1F
100
AcDbEntity
  8
0
  6
Continuous
 62
     7
370
    15
100
AcDbCircle
 10
-112.2265853659
 20
1493.9637863394
 30
0.0
 40
15.00000000000002
  0
CIRCLE
  5
127
330
1F
100
AcDbEntity
  8
0
  6
Continuous
 62
     7
370
    15
100
AcDbCircle
 10
-112.2265853659
 20
1493.9637863394
 30
0.0
 40
12.99999999999998
  0
ARC
  5
128
330
1F
100
AcDbEntity
  8
0
  6
Continuous
 62
     7
370
    15
100
AcDbCircle
 10
-112.2265853659
 20
1493.9637863394
 30
0.0
 40
29.00000000000009
100
AcDbArc
 50
301.1473899215
 51
238.8526100785
  0
ARC
  5
129
330
1F
100
AcDbEntity
  8
0
  6
Continuous
 62
     7
370
    15
100
AcDbCircle
 10
-812.2265853659
 20
1493.9637863394
 30
0.0
 40
29.0
100
AcDbArc
 50
301.1473899215
 51
238.8526100785
  0
LINE
  5
12A
330
1F
100
AcDbEntity
  8
0
  6
Continuous
 62
     7
370
    15
100
AcDbLine
 10
-97.22658775
 20
1493.9637899752
 30
0.0
 11
-97.22658775
 21
1304.9637869354
 31
0.0
  0
LINE
  5
12B
330
1F
100
AcDbEntity
  8
0
  6
Continuous
 62
     7
370
    15
100
AcDbLine
 10
-127.2265591398
 20
1304.9637869354
 30
0.0
 11
-127.2265591398
 21
1493.9637899752
 31
0.0
  0
LINE
  5
12C
330
1F
100
AcDbEntity
  8
0
  6
Continuous
 62
     7
370
    15
100
AcDbLine
 10
-827.2265844718
 20
1304.9637869354
 30
0.0
 11
-827.2265844718
 21
1493.9637899752
 31
0.0
  0
LINE
  5
12D
330
1F
100
AcDbEntity
  8
0
  6
Continuous
 62
     7
370
    15
100
AcDbLine
 10
-797.2265832797
 20
1493.9637899752
 30
0.0
 11
-797.2265832797
 21
1304.9637869354
 31
0.0
  0
LINE
  5
12E
330
1F
100
AcDbEntity
  8
0
  6
Continuous
 62
     7
370
    15
100
AcDbLine
 10
-12.2266092077
 20
-635.0361659769
 30
0.0
 11
-12.2266092077
 21
1414.9637863394
 31
0.0
  0
LINE
  5
12F
330
1F
100
AcDbEntity
  8
0
  6
Continuous
 62
     7
370
    15
100
AcDbLine
 10
-912.2265853659
 20
1414.9637863394
 30
0.0
 11
-912.2265853659
 21
-635.0361659769
 31
0.0
  0
LINE
  5
130
330
1F
100
AcDbEntity
  8
0
  6
Continuous
 62
     7
370
    15
100
AcDbLine
 10
-912.2265853659
 20
-635.0361659769
 30
0.0
 11
-12.2266092077
 21
-635.0361659769
 31
0.0
  0
LINE
  5
131
330
1F
100
AcDbEntity
  8
0
  6
Continuous
 62
     7
370
    15
100
AcDbLine
 10
-12.2266092077
 20
1414.9637863394
 30
0.0
 11
-97.22658775
 21
1414.9637863394
 31
0.0
  0
LINE
  5
132
330
1F
100
AcDbEntity
  8
0
  6
Continuous
 62
     7
370
    15
100
AcDbLine
 10
-127.2265591398
 20
1414.9637863394
 30
0.0
 11
-797.2265832797
 21
1414.9637863394
 31
0.0
  0
LINE
  5
133
330
1F
100
AcDbEntity
  8
0
  6
Continuous
 62
     7
370
    15
100
AcDbLine
 10
-827.2265844718
 20
1414.9637863394
 30
0.0
 11
-912.2265853659
 21
1414.9637863394
 31
0.0
  0
CIRCLE
  5
134
330
1F
100
AcDbEntity
  8
0
  6
Continuous
 62
     7
370
    15
100
AcDbCircle
 10
-270.2265853659
 20
1455.3637863394
 30
0.0
 40
6.449999999999934
  0
LINE
  5
135
330
1F
100
AcDbEntity
  8
0
  6
Continuous
 62
     7
370
    15
100
AcDbLine
 10
-267.7427806631
 20
1456.8348870035
 30
0.0
 11
-270.2586927191
 21
1458.2503594812
 31
0.0
  0
LINE
  5
136
330
1F
100
AcDbEntity
  8
0
  6
Continuous
 62
     7
370
    15
100
AcDbLine
 10
-272.7424778715
 20
1456.7792572435
 30
0.0
 11
-272.710350968
 21
1453.8926862534
 31
0.0
  0
LINE
  5
137
330
1F
100
AcDbEntity
  8
0
  6
Continuous
 62
     7
370
    15
100
AcDbLine
 10
-272.710350968
 20
1453.8926862534
 30
0.0
 11
-270.194438912
 21
1452.4772137757
 31
0.0
  0
LINE
  5
138
330
1F
100
AcDbEntity
  8
0
  6
Continuous
 62
     7
370
    15
100
AcDbLine
 10
-270.194438912
 20
1452.4772137757
 30
0.0
 11
-267.7106537596
 21
1453.9483160134
 31
0.0
  0
LINE
  5
139
330
1F
100
AcDbEntity
  8
0
  6
Continuous
 62
     7
370
    15
100
AcDbLine
 10
-267.7106537596
 20
1453.9483160134
 30
0.0
 11
-267.7427806631
 21
1456.8348870035
 31
0.0
  0
LINE
  5
13A
330
1F
100
AcDbEntity
  8
0
  6
Continuous
 62
     7
370
    15
100
AcDbLine
 10
-270.2586927191
 20
1458.2503594812
 30
0.0
 11
-272.7424778715
 21
1456.7792572435
 31
0.0
  0
CIRCLE
  5
13B
330
1F
100
AcDbEntity
  8
0
  6
Continuous
 62
     7
370
    15
100
AcDbCircle
 10
-270.2265853659
 20
1455.3637863394
 30
0.0
 40
7.449999999999962
  0
CIRCLE
  5
13C
330
1F
100
AcDbEntity
  8
0
  6
Continuous
 62
     7
370
    15
100
AcDbCircle
 10
239.7734146341
 20
1455.3637863394
 30
0.0
 40
6.450000000000045
  0
CIRCLE
  5
13D
330
1F
100
AcDbEntity
  8
0
  6
Continuous
 62
     7
370
    15
100
AcDbCircle
 10
239.7734146341
 20
1455.3637863394
 30
0.0
 40
7.449999999999932
  0
LINE
  5
13E
330
1F
100
AcDbEntity
  8
0
  6
Continuous
 62
     7
370
    15
100
AcDbLine
 10
242.2607860788
 20
1456.828758901
 30
0.0
 11
239.7484503016
 21
1458.2504265364
 31
0.0
  0
LINE
  5
13F
330
1F
100
AcDbEntity
  8
0
  6
Continuous
 62
     7
370
    15
100
AcDbLine
 10
237.2610292658
 20
1456.7854524012
 30
0.0
 11
237.2860632166
 21
1453.8988106306
 31
0.0
  0
LINE
  5
140
330
1F
100
AcDbEntity
  8
0
  6
Continuous
 62
     7
370
    15
100
AcDbLine
 10
237.2860632166
 20
1453.8988106306
 30
0.0
 11
239.7983989939
 21
1452.4771429952
 31
0.0
  0
LINE
  5
141
330
1F
100
AcDbEntity
  8
0
  6
Continuous
 62
     7
370
    15
100
AcDbLine
 10
242.2858200297
 20
1453.9421171304
 30
0.0
 11
242.2607860788
 21
1456.828758901
 31
0.0
  0
LINE
  5
142
330
1F
100
AcDbEntity
  8
0
  6
Continuous
 62
     7
370
    15
100
AcDbLine
 10
239.7484503016
 20
1458.2504265364
 30
0.0
 11
237.2610292658
 21
1456.7854524012
 31
0.0
  0
LINE
  5
143
330
1F
100
AcDbEntity
  8
0
  6
Continuous
 62
     7
370
    15
100
AcDbLine
 10
239.7983989939
 20
1452.4771429952
 30
0.0
 11
242.2858200297
 21
1453.9421171304
 31
0.0
  0
CIRCLE
  5
144
330
1F
100
AcDbEntity
  8
0
  6
Continuous
 62
     7
370
    15
100
AcDbCircle
 10
749.7734146341
 20
1455.3637863394
 30
0.0
 40
6.44999999999999
  0
CIRCLE
  5
145
330
1F
100
AcDbEntity
  8
0
  6
Continuous
 62
     7
370
    15
100
AcDbCircle
 10
749.7734146341
 20
1455.3637863394
 30
0.0
 40
7.450000000000189
  0
LINE
  5
146
330
1F
100
AcDbEntity
  8
0
  6
Continuous
 62
     7
370
    15
100
AcDbLine
 10
749.7412882075
 20
1458.2503594812
 30
0.0
 11
747.2575626597
 21
1456.7792572435
 31
0.0
  0
LINE
  5
147
330
1F
100
AcDbEntity
  8
0
  6
Continuous
 62
     7
370
    15
100
AcDbLine
 10
747.2575626597
 20
1456.7792572435
 30
0.0
 11
747.2896299585
 21
1453.8926862534
 31
0.0
  0
LINE
  5
148
330
1F
100
AcDbEntity
  8
0
  6
Continuous
 62
     7
370
    15
100
AcDbLine
 10
747.2896299585
 20
1453.8926862534
 30
0.0
 11
749.8055420145
 21
1452.4772137757
 31
0.0
  0
LINE
  5
149
330
1F
100
AcDbEntity
  8
0
  6
Continuous
 62
     7
370
    15
100
AcDbLine
 10
752.2892675623
 20
1453.9483160134
 30
0.0
 11
752.2572002634
 21
1456.8348870035
 31
0.0
  0
LINE
  5
14A
330
1F
100
AcDbEntity
  8
0
  6
Continuous
 62
     7
370
    15
100
AcDbLine
 10
752.2572002634
 20
1456.8348870035
 30
0.0
 11
749.7412882075
 21
1458.2503594812
 31
0.0
  0
LINE
  5
14B
330
1F
100
AcDbEntity
  8
0
  6
Continuous
 62
     7
370
    15
100
AcDbLine
 10
749.8055420145
 20
1452.4772137757
 30
0.0
 11
752.2892675623
 21
1453.9483160134
 31
0.0
  0
CIRCLE
  5
14C
330
1F
100
AcDbEntity
  8
0
  6
Continuous
 62
     7
370
    15
100
AcDbCircle
 10
-780.2265853659
 20
1455.3637863394
 30
0.0
 40
6.44999999999999
  0
CIRCLE
  5
14D
330
1F
100
AcDbEntity
  8
0
  6
Continuous
 62
     7
370
    15
100
AcDbCircle
 10
-780.2265853659
 20
1455.3637863394
 30
0.0
 40
7.449999999999848
  0
LINE
  5
14E
330
1F
100
AcDbEntity
  8
0
  6
Continuous
 62
     7
370
    15
100
AcDbLine
 10
-777.7428009287
 20
1456.8348870035
 30
0.0
 11
-780.2586980835
 21
1458.2503594812
 31
0.0
  0
LINE
  5
14F
330
1F
100
AcDbEntity
  8
0
  6
Continuous
 62
     7
370
    15
100
AcDbLine
 10
-780.2586980835
 20
1458.2503594812
 30
0.0
 11
-782.7424832359
 21
1456.7792572435
 31
0.0
  0
LINE
  5
150
330
1F
100
AcDbEntity
  8
0
  6
Continuous
 62
     7
370
    15
100
AcDbLine
 10
-777.7106889263
 20
1453.9483160134
 30
0.0
 11
-777.7428009287
 21
1456.8348870035
 31
0.0
  0
LINE
  5
151
330
1F
100
AcDbEntity
  8
0
  6
Continuous
 62
     7
370
    15
100
AcDbLine
 10
-782.7424832359
 20
1456.7792572435
 30
0.0
 11
-782.7103712335
 21
1453.8926862534
 31
0.0
  0
LINE
  5
152
330
1F
100
AcDbEntity
  8
0
  6
Continuous
 62
     7
370
    15
100
AcDbLine
 10
-782.7103712335
 20
1453.8926862534
 30
0.0
 11
-780.1944591776
 21
1452.4772137757
 31
0.0
  0
LINE
  5
153
330
1F
100
AcDbEntity
  8
0
  6
Continuous
 62
     7
370
    15
100
AcDbLine
 10
-780.1944591776
 20
1452.4772137757
 30
0.0
 11
-777.7106889263
 21
1453.9483160134
 31
0.0
  0
CIRCLE
  5
154
330
1F
100
AcDbEntity
  8
0
  6
Continuous
 62
     7
370
    15
100
AcDbCircle
 10
1259.7734146341
 20
1455.3637863394
 30
0.0
 40
6.450000000000104
  0
CIRCLE
  5
155
330
1F
100
AcDbEntity
  8
0
  6
Continuous
 62
     7
370
    15
100
AcDbCircle
 10
1259.7734146341
 20
1455.3637863394
 30
0.0
 40
7.450000000000188
  0
LINE
  5
156
330
1F
100
AcDbEntity
  8
0
  6
Continuous
 62
     7
370
    15
100
AcDbLine
 10
1259.74139788
 20
1458.2503594812
 30
0.0
 11
1257.2575531229
 21
1456.7792572435
 31
0.0
  0
LINE
  5
157
330
1F
100
AcDbEntity
  8
0
  6
Continuous
 62
     7
370
    15
100
AcDbLine
 10
1257.2575531229
 20
1456.7792572435
 30
0.0
 11
1257.2897396311
 21
1453.8926862534
 31
0.0
  0
LINE
  5
158
330
1F
100
AcDbEntity
  8
0
  6
Continuous
 62
     7
370
    15
100
AcDbLine
 10
1259.8055324778
 20
1452.4772137757
 30
0.0
 11
1262.2893772349
 21
1453.9483160134
 31
0.0
  0
LINE
  5
159
330
1F
100
AcDbEntity
  8
0
  6
Continuous
 62
     7
370
    15
100
AcDbLine
 10
1262.2571907267
 20
1456.8348870035
 30
0.0
 11
1259.74139788
 21
1458.2503594812
 31
0.0
  0
LINE
  5
15A
330
1F
100
AcDbEntity
  8
0
  6
Continuous
 62
     7
370
    15
100
AcDbLine
 10
1257.2897396311
 20
1453.8926862534
 30
0.0
 11
1259.8055324778
 21
1452.4772137757
 31
0.0
  0
LINE
  5
15B
330
1F
100
AcDbEntity
  8
0
  6
Continuous
 62
     7
370
    15
100
AcDbLine
 10
1262.2893772349
 20
1453.9483160134
 30
0.0
 11
1262.2571907267
 21
1456.8348870035
 31
0.0
  0
ARC
  5
15C
330
1F
100
AcDbEntity
  8
0
  6
Continuous
 62
     7
370
    15
100
AcDbCircle
 10
-780.2265853659
 20
1455.3637863394
 30
0.0
 40
24.00000000000018
100
AcDbArc
 50
31.3881664643
 51
108.8005444417
  0
ARC
  5
15D
330
1F
100
AcDbEntity
  8
0
  6
Continuous
 62
     7
370
    15
100
AcDbCircle
 10
-780.2265853659
 20
1455.3637863394
 30
0.0
 40
24.00000000000004
100
AcDbArc
 50
224.9005279607
 51
328.6118335357
  0
ARC
  5
15E
330
1F
100
AcDbEntity
  8
0
  6
Continuous
 62
     7
370
    15
100
AcDbCircle
 10
-780.2265853659
 20
1455.3637863394
 30
0.0
 40
24.99999999999992
100
AcDbArc
 50
227.1563569564
 51
330.0
  0
ARC
  5
15F
330
1F
100
AcDbEntity
  8
0
  6
Continuous
 62
     7
370
    15
100
AcDbCircle
 10
-780.2265853659
 20
1455.3637863394
 30
0.0
 40
25.0000000000001
100
AcDbArc
 50
30.0
 51
106.0973005297
  0
ARC
  5
160
330
1F
100
AcDbEntity
  8
0
  6
Continuous
 62
     7
370
    15
100
AcDbCircle
 10
-270.2265853659
 20
1455.3637863394
 30
0.0
 40
24.00000000000013
100
AcDbArc
 50
31.3881664643
 51
148.6118335357
  0
ARC
  5
161
330
1F
100
AcDbEntity
  8
0
  6
Continuous
 62
     7
370
    15
100
AcDbCircle
 10
-270.2265853659
 20
1455.3637863394
 30
0.0
 40
24.00000000000001
100
AcDbArc
 50
211.3881664643
 51
328.6118335357
  0
ARC
  5
162
330
1F
100
AcDbEntity
  8
0
  6
Continuous
 62
     7
370
    15
100
AcDbCircle
 10
-270.2265853659
 20
1455.3637863394
 30
0.0
 40
25.00000000000003
100
AcDbArc
 50
210.0
 51
330.0
  0
ARC
  5
163
330
1F
100
AcDbEntity
  8
0
  6
Continuous
 62
     7
370
    15
100
AcDbCircle
 10
-270.2265853659
 20
1455.3637863394
 30
0.0
 40
25.00000000000015
100
AcDbArc
 50
30.0
 51
150.0
  0
ARC
  5
164
330
1F
100
AcDbEntity
  8
0
  6
Continuous
 62
     7
370
    15
100
AcDbCircle
 10
749.7734146341
 20
1455.3637863394
 30
0.0
 40
23.99999999999995
100
AcDbArc
 50
31.3881664643
 51
148.6118335357
  0
ARC
  5
165
330
1F
100
AcDbEntity
  8
0
  6
Continuous
 62
     7
370
    15
100
AcDbCircle
 10
749.7734146341
 20
1455.3637863394
 30
0.0
 40
24.00000000000006
100
AcDbArc
 50
211.3881664643
 51
328.6118335357
  0
ARC
  5
166
330
1F
100
AcDbEntity
  8
0
  6
Continuous
 62
     7
370
    15
100
AcDbCircle
 10
749.7734146341
 20
1455.3637863394
 30
0.0
 40
24.99999999999999
100
AcDbArc
 50
210.0
 51
330.0
  0
ARC
  5
167
330
1F
100
AcDbEntity
  8
0
  6
Continuous
 62
     7
370
    15
100
AcDbCircle
 10
749.7734146341
 20
1455.3637863394
 30
0.0
 40
24.99999999999987
100
AcDbArc
 50
30.0
 51
150.0
  0
ARC
  5
168
330
1F
100
AcDbEntity
  8
0
  6
Continuous
 62
     7
370
    15
100
AcDbCircle
 10
1259.7734146341
 20
1455.3637863394
 30
0.0
 40
24.00000000000004
100
AcDbArc
 50
31.3881664643
 51
148.6118335357
  0
ARC
  5
169
330
1F
100
AcDbEntity
  8
0
  6
Continuous
 62
     7
370
    15
100
AcDbCircle
 10
1259.7734146341
 20
1455.3637863394
 30
0.0
 40
24.00000000000016
100
AcDbArc
 50
211.3881664643
 51
328.6118335357
  0
ARC
  5
16A
330
1F
100
AcDbEntity
  8
0
  6
Continuous
 62
     7
370
    15
100
AcDbCircle
 10
1259.7734146341
 20
1455.3637863394
 30
0.0
 40
24.99999999999989
100
AcDbArc
 50
210.0
 51
330.0
  0
ARC
  5
16B
330
1F
100
AcDbEntity
  8
0
  6
Continuous
 62
     7
370
    15
100
AcDbCircle
 10
1259.7734146341
 20
1455.3637863394
 30
0.0
 40
24.99999999999977
100
AcDbArc
 50
30.0
 51
150.0
  0
ARC
  5
16C
330
1F
100
AcDbEntity
  8
0
  6
Continuous
 62
     7
370
    15
100
AcDbCircle
 10
239.7734146341
 20
1455.3637863394
 30
0.0
 40
23.99999999999979
100
AcDbArc
 50
31.3881664644
 51
148.6118335356
  0
ARC
  5
16D
330
1F
100
AcDbEntity
  8
0
  6
Continuous
 62
     7
370
    15
100
AcDbCircle
 10
239.7734146341
 20
1455.3637863394
 30
0.0
 40
24.0000000000001
100
AcDbArc
 50
211.3881664643
 51
328.6118335357
  0
ARC
  5
16E
330
1F
100
AcDbEntity
  8
0
  6
Continuous
 62
     7
370
    15
100
AcDbCircle
 10
239.7734146341
 20
1455.3637863394
 30
0.0
 40
25.00000000000002
100
AcDbArc
 50
210.0
 51
330.0
  0
ARC
  5
16F
330
1F
100
AcDbEntity
  8
0
  6
Continuous
 62
     7
370
    15
100
AcDbCircle
 10
239.7734146341
 20
1455.3637863394
 30
0.0
 40
24.99999999999986
100
AcDbArc
 50
30.0
 51
150.0
  0
LINE
  5
170
330
1F
100
AcDbEntity
  8
0
  6
Continuous
 62
     8
370
    15
100
AcDbLine
 10
-82.950500466
 20
-635.0361659769
 30
0.0
 11
-82.9673089758
 21
-639.0361144785
 31
0.0
  0
LINE
  5
171
330
1F
100
AcDbEntity
  8
0
  6
Continuous
 62
     8
370
    15
100
AcDbLine
 10
-56.5026678816
 20
-635.0361659769
 30
0.0
 11
-56.4858593717
 21
-639.0361144785
 31
0.0
  0
LINE
  5
172
330
1F
100
AcDbEntity
  8
0
  6
Continuous
 62
     7
370
    15
100
AcDbLine
 10
1521.1029419206
 20
-639.0361144785
 30
0.0
 11
1520.8236606323
 21
-623.0363204722
 31
0.0
  0
LINE
  5
173
330
1F
100
AcDbEntity
  8
0
  6
Continuous
 62
     7
370
    15
100
AcDbLine
 10
1516.2058839105
 20
-623.0363204722
 30
0.0
 11
1515.9266026222
 21
-639.0361144785
 31
0.0
  0
LINE
  5
174
330
1F
100
AcDbEntity
  8
0
  6
Continuous
 62
     7
370
    15
100
AcDbLine
 10
1534.1408228033
 20
1435.3637870755
 30
0.0
 11
1542.1408241146
 21
1435.3637870755
 31
0.0
  0
LINE
  5
175
330
1F
100
AcDbEntity
  8
0
  6
Continuous
 62
     7
370
    15
100
AcDbLine
 10
1542.1408241146
 20
1475.3637880441
 30
0.0
 11
1534.1408228033
 21
1475.3637880441
 31
0.0
  0
LINE
  5
176
330
1F
100
AcDbEntity
  8
0
  6
Continuous
 62
     7
370
    15
100
AcDbLine
 10
1503.3408243671
 20
1471.3637873884
 30
0.0
 11
1501.5408241652
 21
1469.5637867208
 31
0.0
  0
LINE
  5
177
330
1F
100
AcDbEntity
  8
0
  6
Continuous
 62
     7
370
    15
100
AcDbLine
 10
1501.5408241652
 20
1441.1637865361
 30
0.0
 11
1503.3408243671
 21
1439.3637858685
 31
0.0
  0
LINE
  5
178
330
1F
100
AcDbEntity
  8
0
  6
Continuous
 62
     7
370
    15
100
AcDbLine
 10
1503.3408243671
 20
1439.3637858685
 30
0.0
 11
1534.1408228033
 21
1439.3637858685
 31
0.0
  0
LINE
  5
179
330
1F
100
AcDbEntity
  8
0
  6
Continuous
 62
     7
370
    15
100
AcDbLine
 10
1534.1408228033
 20
1471.3637873884
 30
0.0
 11
1503.3408243671
 21
1471.3637873884
 31
0.0
  0
LINE
  5
17A
330
1F
100
AcDbEntity
  8
0
  6
Continuous
 62
     7
370
    15
100
AcDbLine
 10
1487.0408245825
 20
1447.8637881931
 30
0.0
 11
1501.5408241652
 21
1447.8637881931
 31
0.0
  0
LINE
  5
17B
330
1F
100
AcDbEntity
  8
0
  6
Continuous
 62
     7
370
    15
100
AcDbLine
 10
1501.5408241652
 20
1462.8637850638
 30
0.0
 11
1487.0408245825
 21
1462.8637850638
 31
0.0
  0
LINE
  5
17C
330
1F
100
AcDbEntity
  8
0
  6
Continuous
 62
     7
370
    15
100
AcDbLine
 10
1534.7147745543
 20
1478.9637893792
 30
0.0
 11
1538.3147721641
 21
1478.9637893792
 31
0.0
  0
LINE
  5
17D
330
1F
100
AcDbEntity
  8
0
  6
Continuous
 62
     7
370
    15
100
AcDbLine
 10
1538.3147721641
 20
1508.9637831207
 30
0.0
 11
1534.7147745543
 21
1508.9637831207
 31
0.0
  0
LINE
  5
17E
330
1F
100
AcDbEntity
  8
0
  6
Continuous
 62
     7
370
    15
100
AcDbLine
 10
1534.7147745543
 20
1508.9637831207
 30
0.0
 11
1534.5147711687
 21
1508.7637871857
 31
0.0
  0
LINE
  5
17F
330
1F
100
AcDbEntity
  8
0
  6
Continuous
 62
     7
370
    15
100
AcDbLine
 10
1534.5147711687
 20
1479.1637853142
 30
0.0
 11
1534.7147745543
 21
1478.9637893792
 31
0.0
  0
LINE
  5
180
330
1F
100
AcDbEntity
  8
0
  6
Continuous
 62
     7
370
    15
100
AcDbLine
 10
1538.3147721641
 20
1478.9637893792
 30
0.0
 11
1538.5147718244
 21
1479.1637853142
 31
0.0
  0
LINE
  5
181
330
1F
100
AcDbEntity
  8
0
  6
Continuous
 62
     7
370
    15
100
AcDbLine
 10
1538.5147718244
 20
1508.7637871857
 30
0.0
 11
1538.3147721641
 21
1508.9637831207
 31
0.0
  0
ARC
  5
182
330
1F
100
AcDbEntity
  8
0
  6
Continuous
 62
     7
370
    15
100
AcDbCircle
 10
1496.5976154309
 20
1345.1637863394
 30
0.0
 40
0.2000000000000455
100
AcDbArc
 50
225.0
 51
270.0
  0
ARC
  5
183
330
1F
100
AcDbEntity
  8
0
  6
Continuous
 62
     7
370
    15
100
AcDbCircle
 10
1496.5976154309
 20
1374.7637863394
 30
0.0
 40
0.2000000000001302
100
AcDbArc
 50
90.0
 51
135.0
  0
LINE
  5
184
330
1F
100
AcDbEntity
  8
0
  6
Continuous
 62
     7
370
    15
100
AcDbLine
 10
1496.5976153963
 20
1344.9637860413
 30
0.0
 11
1498.3147727235
 21
1344.9637860413
 31
0.0
  0
LINE
  5
185
330
1F
100
AcDbEntity
  8
0
  6
Continuous
 62
     7
370
    15
100
AcDbLine
 10
1498.3147727235
 20
1374.9637872334
 30
0.0
 11
1496.5976153963
 21
1374.9637872334
 31
0.0
  0
ARC
  5
186
330
1F
100
AcDbEntity
  8
0
  6
Continuous
 62
     7
370
    15
100
AcDbCircle
 10
1498.3147727184
 20
1374.7637863394
 30
0.0
 40
0.2000000000000455
100
AcDbArc
 50
0.0
 51
90.0
  0
ARC
  5
187
330
1F
100
AcDbEntity
  8
0
  6
Continuous
 62
     7
370
    15
100
AcDbCircle
 10
1498.3147727184
 20
1345.1637863394
 30
0.0
 40
0.2000000000000455
100
AcDbArc
 50
270.0
 51
0.0
  0
LINE
  5
188
330
1F
100
AcDbEntity
  8
0
  6
Continuous
 62
     7
370
    15
100
AcDbLine
 10
1496.4561940633
 20
1374.9052070435
 30
0.0
 11
1494.5733513214
 21
1373.0223633703
 31
0.0
  0
LINE
  5
189
330
1F
100
AcDbEntity
  8
0
  6
Continuous
 62
     7
370
    15
100
AcDbLine
 10
1494.5733513214
 20
1346.9052061792
 30
0.0
 11
1496.4561940633
 21
1345.022362506
 31
0.0
  0
ARC
  5
18A
330
1F
100
AcDbEntity
  8
0
  6
Continuous
 62
     7
370
    15
100
AcDbCircle
 10
1494.7147727184
 20
1372.8809436269
 30
0.0
 40
0.2000000000001302
100
AcDbArc
 50
135.0
 51
180.0
  0
ARC
  5
18B
330
1F
100
AcDbEntity
  8
0
  6
Continuous
 62
     7
370
    15
100
AcDbCircle
 10
1494.7147727184
 20
1347.0466290518
 30
0.0
 40
0.2000000000001302
100
AcDbArc
 50
180.0000000001
 51
225.0
  0
ARC
  5
18C
330
1F
100
AcDbEntity
  8
0
  6
Continuous
 62
     7
370
    15
100
AcDbCircle
 10
1542.3408241417
 20
1440.5637863394
 30
0.0
 40
0.2000000000000455
100
AcDbArc
 50
180.0
 51
270.0
  0
ARC
  5
18D
330
1F
100
AcDbEntity
  8
0
  6
Continuous
 62
     7
370
    15
100
AcDbCircle
 10
1542.3408241417
 20
1470.1637863394
 30
0.0
 40
0.2000000000002728
100
AcDbArc
 50
90.0
 51
180.0
  0
LINE
  5
18E
330
1F
100
AcDbEntity
  8
0
  6
Continuous
 62
     7
370
    15
100
AcDbLine
 10
1544.0579814367
 20
1470.3637853618
 30
0.0
 11
1542.3408237748
 21
1470.3637853618
 31
0.0
  0
LINE
  5
18F
330
1F
100
AcDbEntity
  8
0
  6
Continuous
 62
     7
370
    15
100
AcDbLine
 10
1542.3408237748
 20
1440.3637860324
 30
0.0
 11
1544.0579814367
 21
1440.3637860324
 31
0.0
  0
ARC
  5
190
330
1F
100
AcDbEntity
  8
0
  6
Continuous
 62
     7
370
    15
100
AcDbCircle
 10
1544.0579814292
 20
1470.1637863394
 30
0.0
 40
0.2000000000002728
100
AcDbArc
 50
45.0
 51
90.0
  0
ARC
  5
191
330
1F
100
AcDbEntity
  8
0
  6
Continuous
 62
     7
370
    15
100
AcDbCircle
 10
1544.0579814292
 20
1440.5637863394
 30
0.0
 40
0.2000000000000455
100
AcDbArc
 50
270.0
 51
315.0
  0
LINE
  5
192
330
1F
100
AcDbEntity
  8
0
  6
Continuous
 62
     7
370
    15
100
AcDbLine
 10
1544.1994046323
 20
1440.4223643597
 30
0.0
 11
1546.0822445803
 21
1442.3052080329
 31
0.0
  0
LINE
  5
193
330
1F
100
AcDbEntity
  8
0
  6
Continuous
 62
     7
370
    15
100
AcDbLine
 10
1546.0822445803
 20
1468.422365224
 30
0.0
 11
1544.1994046323
 21
1470.3052088972
 31
0.0
  0
ARC
  5
194
330
1F
100
AcDbEntity
  8
0
  6
Continuous
 62
     7
370
    15
100
AcDbCircle
 10
1545.9408241417
 20
1442.4466290518
 30
0.0
 40
0.1999999999998181
100
AcDbArc
 50
315.0
 51
0.0
  0
ARC
  5
195
330
1F
100
AcDbEntity
  8
0
  6
Continuous
 62
     7
370
    15
100
AcDbCircle
 10
1545.9408241417
 20
1468.2809436269
 30
0.0
 40
0.1999999999998181
100
AcDbArc
 50
0.0
 51
45.0
  0
ARC
  5
196
330
1F
100
AcDbEntity
  8
0
  6
Continuous
 62
     7
370
    15
100
AcDbCircle
 10
1496.5976154309
 20
1290.1637863394
 30
0.0
 40
0.2000000000001302
100
AcDbArc
 50
225.0
 51
270.0
  0
ARC
  5
197
330
1F
100
AcDbEntity
  8
0
  6
Continuous
 62
     7
370
    15
100
AcDbCircle
 10
1496.5976154309
 20
1319.7637863394
 30
0.0
 40
0.2000000000001302
100
AcDbArc
 50
90.0
 51
135.0
  0
LINE
  5
198
330
1F
100
AcDbEntity
  8
0
  6
Continuous
 62
     7
370
    15
100
AcDbLine
 10
1496.5976153963
 20
1289.9637863394
 30
0.0
 11
1498.3147727235
 21
1289.9637863394
 31
0.0
  0
LINE
  5
199
330
1F
100
AcDbEntity
  8
0
  6
Continuous
 62
     7
370
    15
100
AcDbLine
 10
1498.3147727235
 20
1319.9637875315
 30
0.0
 11
1496.5976153963
 21
1319.9637875315
 31
0.0
  0
ARC
  5
19A
330
1F
100
AcDbEntity
  8
0
  6
Continuous
 62
     7
370
    15
100
AcDbCircle
 10
1498.3147727184
 20
1319.7637863394
 30
0.0
 40
0.2000000000000455
100
AcDbArc
 50
0.0
 51
90.0
  0
ARC
  5
19B
330
1F
100
AcDbEntity
  8
0
  6
Continuous
 62
     7
370
    15
100
AcDbCircle
 10
1498.3147727184
 20
1290.1637863394
 30
0.0
 40
0.2000000000000455
100
AcDbArc
 50
270.0
 51
0.0
  0
LINE
  5
19C
330
1F
100
AcDbEntity
  8
0
  6
Continuous
 62
     7
370
    15
100
AcDbLine
 10
1496.4561940633
 20
1319.9052110668
 30
0.0
 11
1494.5733513214
 21
1318.0223673936
 31
0.0
  0
LINE
  5
19D
330
1F
100
AcDbEntity
  8
0
  6
Continuous
 62
     7
370
    15
100
AcDbLine
 10
1494.5733513214
 20
1291.9052064772
 30
0.0
 11
1496.4561940633
 21
1290.022362804
 31
0.0
  0
ARC
  5
19E
330
1F
100
AcDbEntity
  8
0
  6
Continuous
 62
     7
370
    15
100
AcDbCircle
 10
1494.7147727184
 20
1317.8809436269
 30
0.0
 40
0.2000000000000455
100
AcDbArc
 50
135.0
 51
180.0
  0
ARC
  5
19F
330
1F
100
AcDbEntity
  8
0
  6
Continuous
 62
     7
370
    15
100
AcDbCircle
 10
1494.7147727184
 20
1292.0466290518
 30
0.0
 40
0.2000000000000455
100
AcDbArc
 50
180.0
 51
225.0
  0
LINE
  5
1A0
330
1F
100
AcDbEntity
  8
0
  6
Continuous
 62
     7
370
    15
100
AcDbLine
 10
1547.5147714369
 20
1319.9637875315
 30
0.0
 11
1544.5147728078
 21
1319.9637875315
 31
0.0
  0
LINE
  5
1A1
330
1F
100
AcDbEntity
  8
0
  6
Continuous
 62
     7
370
    15
100
AcDbLine
 10
1544.5147728078
 20
1289.9637863394
 30
0.0
 11
1547.5147714369
 21
1289.9637863394
 31
0.0
  0
LINE
  5
1A2
330
1F
100
AcDbEntity
  8
0
  6
Continuous
 62
     7
370
    15
100
AcDbLine
 10
1547.5147714369
 20
1289.9637863394
 30
0.0
 11
1549.5147717648
 21
1291.9637829419
 31
0.0
  0
LINE
  5
1A3
330
1F
100
AcDbEntity
  8
0
  6
Continuous
 62
     7
370
    15
100
AcDbLine
 10
1549.5147717648
 20
1317.9637834783
 30
0.0
 11
1547.5147714369
 21
1319.9637875315
 31
0.0
  0
LINE
  5
1A4
330
1F
100
AcDbEntity
  8
0
  6
Continuous
 62
     7
370
    15
100
AcDbLine
 10
1547.5147714369
 20
1344.9637860413
 30
0.0
 11
1549.5147717648
 21
1346.9637826439
 31
0.0
  0
LINE
  5
1A5
330
1F
100
AcDbEntity
  8
0
  6
Continuous
 62
     7
370
    15
100
AcDbLine
 10
1549.5147717648
 20
1372.9637869056
 30
0.0
 11
1547.5147714369
 21
1374.9637872334
 31
0.0
  0
LINE
  5
1A6
330
1F
100
AcDbEntity
  8
0
  6
Continuous
 62
     7
370
    15
100
AcDbLine
 10
1547.5147714369
 20
1374.9637872334
 30
0.0
 11
1544.5147728078
 21
1374.9637872334
 31
0.0
  0
LINE
  5
1A7
330
1F
100
AcDbEntity
  8
0
  6
Continuous
 62
     7
370
    15
100
AcDbLine
 10
1544.5147728078
 20
1344.9637860413
 30
0.0
 11
1547.5147714369
 21
1344.9637860413
 31
0.0
  0
LINE
  5
1A8
330
1F
100
AcDbEntity
  8
0
  6
Continuous
 62
     7
370
    15
100
AcDbLine
 10
1547.5147714369
 20
1508.9637831207
 30
0.0
 11
1544.5147728078
 21
1508.9637831207
 31
0.0
  0
LINE
  5
1A9
330
1F
100
AcDbEntity
  8
0
  6
Continuous
 62
     7
370
    15
100
AcDbLine
 10
1544.5147728078
 20
1478.9637893792
 30
0.0
 11
1547.5147714369
 21
1478.9637893792
 31
0.0
  0
LINE
  5
1AA
330
1F
100
AcDbEntity
  8
0
  6
Continuous
 62
     7
370
    15
100
AcDbLine
 10
1547.5147714369
 20
1478.9637893792
 30
0.0
 11
1549.5147717648
 21
1480.9637859817
 31
0.0
  0
LINE
  5
1AB
330
1F
100
AcDbEntity
  8
0
  6
Continuous
 62
     7
370
    15
100
AcDbLine
 10
1549.5147717648
 20
1506.9637865182
 30
0.0
 11
1547.5147714369
 21
1508.9637831207
 31
0.0
  0
LINE
  5
1AC
330
1F
100
AcDbEntity
  8
0
  6
Continuous
 62
     7
370
    15
100
AcDbLine
 10
1547.5147714369
 20
1448.9637881871
 30
0.0
 11
1546.1408247702
 21
1448.9637881871
 31
0.0
  0
LINE
  5
1AD
330
1F
100
AcDbEntity
  8
0
  6
Continuous
 62
     7
370
    15
100
AcDbLine
 10
1544.5147728078
 20
1418.9637865294
 30
0.0
 11
1547.5147714369
 21
1418.9637865294
 31
0.0
  0
LINE
  5
1AE
330
1F
100
AcDbEntity
  8
0
  6
Continuous
 62
     7
370
    15
100
AcDbLine
 10
1547.5147714369
 20
1418.9637865294
 30
0.0
 11
1549.5147717648
 21
1420.9637863915
 31
0.0
  0
LINE
  5
1AF
330
1F
100
AcDbEntity
  8
0
  6
Continuous
 62
     7
370
    15
100
AcDbLine
 10
1549.5147717648
 20
1446.9637878593
 30
0.0
 11
1547.5147714369
 21
1448.9637881871
 31
0.0
  0
LINE
  5
1B0
330
1F
100
AcDbEntity
  8
0
  6
Continuous
 62
     7
370
    15
100
AcDbLine
 10
1509.5147726588
 20
1426.9637864437
 30
0.0
 11
1510.5147728227
 21
1425.9637862798
 31
0.0
  0
LINE
  5
1B1
330
1F
100
AcDbEntity
  8
0
  6
Continuous
 62
     7
370
    15
100
AcDbLine
 10
1510.5147728227
 20
1425.9637862798
 30
0.0
 11
1538.3147721641
 21
1425.9637862798
 31
0.0
  0
LINE
  5
1B2
330
1F
100
AcDbEntity
  8
0
  6
Continuous
 62
     7
370
    15
100
AcDbLine
 10
1538.3147721641
 20
1425.9637862798
 30
0.0
 11
1538.5147718244
 21
1426.16378594
 31
0.0
  0
LINE
  5
1B3
330
1F
100
AcDbEntity
  8
0
  6
Continuous
 62
     7
370
    15
100
AcDbLine
 10
1505.5976154745
 20
1478.9637893792
 30
0.0
 11
1506.3147725068
 21
1478.9637893792
 31
0.0
  0
LINE
  5
1B4
330
1F
100
AcDbEntity
  8
0
  6
Continuous
 62
     7
370
    15
100
AcDbLine
 10
1506.3147725068
 20
1508.9637831207
 30
0.0
 11
1505.5976154745
 21
1508.9637831207
 31
0.0
  0
ARC
  5
1B5
330
1F
100
AcDbEntity
  8
0
  6
Continuous
 62
     7
370
    15
100
AcDbCircle
 10
1505.5976154309
 20
1479.1637863394
 30
0.0
 40
0.200000000000291
100
AcDbArc
 50
225.0
 51
270.0
  0
ARC
  5
1B6
330
1F
100
AcDbEntity
  8
0
  6
Continuous
 62
     7
370
    15
100
AcDbCircle
 10
1505.5976154309
 20
1508.7637863394
 30
0.0
 40
0.200000000000291
100
AcDbArc
 50
90.0
 51
135.0
  0
ARC
  5
1B7
330
1F
100
AcDbEntity
  8
0
  6
Continuous
 62
     7
370
    15
100
AcDbCircle
 10
1506.3147727184
 20
1508.7637863394
 30
0.0
 40
0.2000000000000455
100
AcDbArc
 50
0.0
 51
90.0
  0
ARC
  5
1B8
330
1F
100
AcDbEntity
  8
0
  6
Continuous
 62
     7
370
    15
100
AcDbCircle
 10
1506.3147727184
 20
1479.1637863394
 30
0.0
 40
0.2000000000002728
100
AcDbArc
 50
270.0
 51
0.0
  0
LINE
  5
1B9
330
1F
100
AcDbEntity
  8
0
  6
Continuous
 62
     7
370
    15
100
AcDbLine
 10
1505.4561941415
 20
1508.9052066561
 30
0.0
 11
1503.5733513996
 21
1507.0223629828
 31
0.0
  0
LINE
  5
1BA
330
1F
100
AcDbEntity
  8
0
  6
Continuous
 62
     7
370
    15
100
AcDbLine
 10
1503.5733513996
 20
1480.9052095171
 30
0.0
 11
1505.4561941415
 21
1479.0223658439
 31
0.0
  0
ARC
  5
1BB
330
1F
100
AcDbEntity
  8
0
  6
Continuous
 62
     7
370
    15
100
AcDbCircle
 10
1503.7147727184
 20
1506.8809436269
 30
0.0
 40
0.1999999999999695
100
AcDbArc
 50
135.0
 51
180.0
  0
ARC
  5
1BC
330
1F
100
AcDbEntity
  8
0
  6
Continuous
 62
     7
370
    15
100
AcDbCircle
 10
1503.7147727184
 20
1481.0466290518
 30
0.0
 40
0.1999999999999695
100
AcDbArc
 50
180.0
 51
225.0
  0
LINE
  5
1BD
330
1F
100
AcDbEntity
  8
0
  6
Continuous
 62
     7
370
    15
100
AcDbLine
 10
1507.0147731804
 20
1503.7137836572
 30
0.0
 11
1506.5147730984
 21
1503.7137836572
 31
0.0
  0
LINE
  5
1BE
330
1F
100
AcDbEntity
  8
0
  6
Continuous
 62
     7
370
    15
100
AcDbLine
 10
1506.5147730984
 20
1484.2137888428
 30
0.0
 11
1507.0147731804
 21
1484.2137888428
 31
0.0
  0
LINE
  5
1BF
330
1F
100
AcDbEntity
  8
0
  6
Continuous
 62
     7
370
    15
100
AcDbLine
 10
1508.5147724949
 20
1522.9637891408
 30
0.0
 11
1507.0147731804
 21
1522.9637891408
 31
0.0
  0
LINE
  5
1C0
330
1F
100
AcDbEntity
  8
0
  6
Continuous
 62
     7
370
    15
100
AcDbLine
 10
1528.0147728972
 20
1522.9637891408
 30
0.0
 11
1526.5147735827
 21
1522.9637891408
 31
0.0
  0
LINE
  5
1C1
330
1F
100
AcDbEntity
  8
0
  6
Continuous
 62
     7
370
    15
100
AcDbLine
 10
1509.5352012195
 20
1522.9637891408
 30
0.0
 11
1508.5147724949
 21
1522.9637891408
 31
0.0
  0
ARC
  5
1C2
330
1F
100
AcDbEntity
  8
0
  6
Continuous
 62
     7
370
    15
100
AcDbCircle
 10
1517.5408241417
 20
1532.5637863394
 30
0.0
 40
12.50000000000006
100
AcDbArc
 50
230.1746287392
 51
309.8253712608
  0
LINE
  5
1C3
330
1F
100
AcDbEntity
  8
0
  6
Continuous
 62
     7
370
    15
100
AcDbLine
 10
1526.5147735827
 20
1522.9637891408
 30
0.0
 11
1525.5464476996
 21
1522.9637891408
 31
0.0
  0
LINE
  5
1C4
330
1F
100
AcDbEntity
  8
0
  6
Continuous
 62
     7
370
    15
100
AcDbLine
 10
1543.1647723072
 20
1289.9637863394
 30
0.0
 11
1544.5147728078
 21
1289.9637863394
 31
0.0
  0
LINE
  5
1C5
330
1F
100
AcDbEntity
  8
0
  6
Continuous
 62
     7
370
    15
100
AcDbLine
 10
1538.5147718244
 20
1289.9637863394
 30
0.0
 11
1539.8853955321
 21
1289.9637863394
 31
0.0
  0
LINE
  5
1C6
330
1F
100
AcDbEntity
  8
0
  6
Continuous
 62
     7
370
    15
100
AcDbLine
 10
1544.5147728078
 20
1508.9637831207
 30
0.0
 11
1538.5147718244
 21
1508.9637831207
 31
0.0
  0
LINE
  5
1C7
330
1F
100
AcDbEntity
  8
0
  6
Continuous
 62
     7
370
    15
100
AcDbLine
 10
1528.8147734009
 20
1508.9637831207
 30
0.0
 11
1528.5147720479
 21
1508.663785493
 31
0.0
  0
LINE
  5
1C8
330
1F
100
AcDbEntity
  8
0
  6
Continuous
 62
     7
370
    15
100
AcDbLine
 10
1528.5147720479
 20
1479.2637870069
 30
0.0
 11
1528.8147734009
 21
1478.9637893792
 31
0.0
  0
LINE
  5
1C9
330
1F
100
AcDbEntity
  8
0
  6
Continuous
 62
     7
370
    15
100
AcDbLine
 10
1534.214773541
 20
1508.9637831207
 30
0.0
 11
1528.8147734009
 21
1508.9637831207
 31
0.0
  0
LINE
  5
1CA
330
1F
100
AcDbEntity
  8
0
  6
Continuous
 62
     7
370
    15
100
AcDbLine
 10
1528.8147734009
 20
1478.9637893792
 30
0.0
 11
1534.214773541
 21
1478.9637893792
 31
0.0
  0
LINE
  5
1CB
330
1F
100
AcDbEntity
  8
0
  6
Continuous
 62
     7
370
    15
100
AcDbLine
 10
1534.214773541
 20
1478.9637893792
 30
0.0
 11
1534.5147711687
 21
1479.2637870069
 31
0.0
  0
LINE
  5
1CC
330
1F
100
AcDbEntity
  8
0
  6
Continuous
 62
     7
370
    15
100
AcDbLine
 10
1534.5147711687
 20
1508.663785493
 30
0.0
 11
1534.214773541
 21
1508.9637831207
 31
0.0
  0
LINE
  5
1CD
330
1F
100
AcDbEntity
  8
0
  6
Continuous
 62
     7
370
    15
100
AcDbLine
 10
1528.5147720479
 20
1503.7137836572
 30
0.0
 11
1528.0147728972
 21
1503.7137836572
 31
0.0
  0
LINE
  5
1CE
330
1F
100
AcDbEntity
  8
0
  6
Continuous
 62
     7
370
    15
100
AcDbLine
 10
1528.0147728972
 20
1484.2137888428
 30
0.0
 11
1528.5147720479
 21
1484.2137888428
 31
0.0
  0
LINE
  5
1CF
330
1F
100
AcDbEntity
  8
0
  6
Continuous
 62
     7
370
    15
100
AcDbLine
 10
1484.0408240907
 20
1430.3637862559
 30
0.0
 11
1486.0408244186
 21
1430.3637862559
 31
0.0
  0
LINE
  5
1D0
330
1F
100
AcDbEntity
  8
0
  6
Continuous
 62
     7
370
    15
100
AcDbLine
 10
1486.0408244186
 20
1480.3637832757
 30
0.0
 11
1484.0408240907
 21
1480.3637832757
 31
0.0
  0
LINE
  5
1D1
330
1F
100
AcDbEntity
  8
0
  6
Continuous
 62
     7
370
    15
100
AcDbLine
 10
1486.0408244186
 20
1430.3637862559
 30
0.0
 11
1487.0408245825
 21
1431.3637864198
 31
0.0
  0
LINE
  5
1D2
330
1F
100
AcDbEntity
  8
0
  6
Continuous
 62
     7
370
    15
100
AcDbLine
 10
1487.0408245825
 20
1479.3637886997
 30
0.0
 11
1486.0408244186
 21
1480.3637832757
 31
0.0
  0
LINE
  5
1D3
330
1F
100
AcDbEntity
  8
0
  6
Continuous
 62
     7
370
    15
100
AcDbLine
 10
1504.5147727706
 20
-639.0361144785
 30
0.0
 11
1532.5147745662
 21
-639.0361144785
 31
0.0
  0
LINE
  5
1D4
330
1F
100
AcDbEntity
  8
0
  6
Continuous
 62
     7
370
    15
100
AcDbLine
 10
1532.5147745662
 20
-639.0361144785
 30
0.0
 11
1532.5147745662
 21
-643.0363013987
 31
0.0
  0
LINE
  5
1D5
330
1F
100
AcDbEntity
  8
0
  6
Continuous
 62
     7
370
    15
100
AcDbLine
 10
1504.5147727706
 20
-643.0363013987
 30
0.0
 11
1532.5147745662
 21
-643.0363013987
 31
0.0
  0
LINE
  5
1D6
330
1F
100
AcDbEntity
  8
0
  6
Continuous
 62
     7
370
    15
100
AcDbLine
 10
1504.5147727706
 20
-639.0361144785
 30
0.0
 11
1504.5147727706
 21
-643.0363013987
 31
0.0
  0
LINE
  5
1D7
330
1F
100
AcDbEntity
  8
0
  6
Continuous
 62
     7
370
    15
100
AcDbLine
 10
1517.8152502977
 20
-623.0363204722
 30
0.0
 11
1517.5441832744
 21
-639.0361144785
 31
0.0
  0
LINE
  5
1D8
330
1F
100
AcDbEntity
  8
0
  6
Continuous
 62
     7
370
    15
100
AcDbLine
 10
1517.8152502977
 20
-623.0363204722
 30
0.0
 11
1519.2142942451
 21
-623.0363204722
 31
0.0
  0
LINE
  5
1D9
330
1F
100
AcDbEntity
  8
0
  6
Continuous
 62
     7
370
    15
100
AcDbLine
 10
1519.2142942451
 20
-623.0363204722
 30
0.0
 11
1519.4853612684
 21
-639.0361144785
 31
0.0
  0
LINE
  5
1DA
330
1F
100
AcDbEntity
  8
0
  6
Continuous
 62
     7
370
    15
100
AcDbLine
 10
1519.2142942451
 20
-623.0363204722
 30
0.0
 11
1520.8236606323
 21
-623.0363204722
 31
0.0
  0
LINE
  5
1DB
330
1F
100
AcDbEntity
  8
0
  6
Continuous
 62
     7
370
    15
100
AcDbLine
 10
1516.2058839105
 20
-623.0363204722
 30
0.0
 11
1517.8152502977
 21
-623.0363204722
 31
0.0
  0
LINE
  5
1DC
330
1F
100
AcDbEntity
  8
0
  6
Continuous
 62
     7
370
    15
100
AcDbLine
 10
1542.1408241146
 20
1475.3637880441
 30
0.0
 11
1542.1408241146
 21
1435.3637870755
 31
0.0
  0
LINE
  5
1DD
330
1F
100
AcDbEntity
  8
0
  6
Continuous
 62
     7
370
    15
100
AcDbLine
 10
1534.1408228033
 20
1475.3637880441
 30
0.0
 11
1534.1408228033
 21
1435.3637870755
 31
0.0
  0
LINE
  5
1DE
330
1F
100
AcDbEntity
  8
0
  6
Continuous
 62
     7
370
    15
100
AcDbLine
 10
1503.3408243671
 20
1471.3637873884
 30
0.0
 11
1503.3408243671
 21
1439.3637858685
 31
0.0
  0
LINE
  5
1DF
330
1F
100
AcDbEntity
  8
0
  6
Continuous
 62
     7
370
    15
100
AcDbLine
 10
1501.5408241652
 20
1441.1637865361
 30
0.0
 11
1501.5408241652
 21
1469.5637867208
 31
0.0
  0
LINE
  5
1E0
330
1F
100
AcDbEntity
  8
0
  6
Continuous
 62
     7
370
    15
100
AcDbLine
 10
1504.9408239775
 20
1455.3637847658
 30
0.0
 11
1505.1463547625
 21
1456.783973461
 31
0.0
  0
SPLINE
  5
1E1
330
1F
100
AcDbEntity
  8
0
  6
Continuous
 62
     7
370
    15
100
AcDbSpline
210
0.0
220
0.0
230
1.0
 70
     8
 71
     3
 72
     9
 73
     5
 74
     0
 42
0.00000001
 43
0.00000001
 40
0.0
 40
0.0
 40
0.0
 40
0.0
 40
0.5772355642147848
 40
1.0
 40
1.0
 40
1.0
 40
1.0
 10
1530.012184148317
 20
1455.499422585567
 30
0.0
 10
1530.061861451851
 20
1454.853617826548
 30
0.0
 10
1530.147922163652
 20
1453.734828896941
 30
0.0
 10
1529.797543160593
 20
1452.709548582168
 30
0.0
 10
1529.649415379053
 20
1452.276096528371
 30
0.0
  0
SPLINE
  5
1E2
330
1F
100
AcDbEntity
  8
0
  6
Continuous
 62
     7
370
    15
100
AcDbSpline
210
0.0
220
0.0
230
1.0
 70
     8
 71
     3
 72
     9
 73
     5
 74
     0
 42
0.00000001
 43
0.00000001
 40
0.0
 40
0.0
 40
0.0
 40
0.0
 40
0.4159477433799397
 40
1.0
 40
1.0
 40
1.0
 40
1.0
 10
1505.312300147152
 20
1452.781435882648
 30
0.0
 10
1505.205409143558
 20
1453.125231354205
 30
0.0
 10
1504.948427334438
 20
1453.951766602994
 30
0.0
 10
1504.943627393697
 20
1454.843162803406
 30
0.0
 10
1504.940823977476
 20
1455.3637847658
 30
0.0
  0
CIRCLE
  5
1E3
330
1F
100
AcDbEntity
  8
0
  6
Continuous
 62
     7
370
    15
100
AcDbCircle
 10
1517.5408241417
 20
1455.3637863394
 30
0.0
 40
12.49999999999994
  0
CIRCLE
  5
1E4
330
1F
100
AcDbEntity
  8
0
  6
Continuous
 62
     7
370
    15
100
AcDbCircle
 10
1517.5408241417
 20
1455.3637863394
 30
0.0
 40
12.30000000000012
  0
LINE
  5
1E5
330
1F
100
AcDbEntity
  8
0
  6
Continuous
 62
     7
370
    15
100
AcDbLine
 10
1538.3147721641
 20
1481.4414874073
 30
0.0
 11
1538.3147721641
 21
1508.9637831207
 31
0.0
  0
LINE
  5
1E6
330
1F
100
AcDbEntity
  8
0
  6
Continuous
 62
     7
370
    15
100
AcDbLine
 10
1538.3147721641
 20
1478.9637893792
 30
0.0
 11
1538.3147721641
 21
1481.4414874073
 31
0.0
  0
LINE
  5
1E7
330
1F
100
AcDbEntity
  8
0
  6
Continuous
 62
     7
370
    15
100
AcDbLine
 10
1534.7147745543
 20
1481.4414874073
 30
0.0
 11
1534.7147745543
 21
1478.9637893792
 31
0.0
  0
LINE
  5
1E8
330
1F
100
AcDbEntity
  8
0
  6
Continuous
 62
     7
370
    15
100
AcDbLine
 10
1534.7147745543
 20
1508.9637831207
 30
0.0
 11
1534.7147745543
 21
1481.4414874073
 31
0.0
  0
LINE
  5
1E9
330
1F
100
AcDbEntity
  8
0
  6
Continuous
 62
     7
370
    15
100
AcDbLine
 10
1534.5147711687
 20
1481.6084549185
 30
0.0
 11
1534.5147711687
 21
1508.7637871857
 31
0.0
  0
LINE
  5
1EA
330
1F
100
AcDbEntity
  8
0
  6
Continuous
 62
     7
370
    15
100
AcDbLine
 10
1534.5147711687
 20
1479.1637853142
 30
0.0
 11
1534.5147711687
 21
1481.6084549185
 31
0.0
  0
LINE
  5
1EB
330
1F
100
AcDbEntity
  8
0
  6
Continuous
 62
     7
370
    15
100
AcDbLine
 10
1494.5147725284
 20
1347.0466256495
 30
0.0
 11
1494.5147725284
 21
1372.8809438999
 31
0.0
  0
LINE
  5
1EC
330
1F
100
AcDbEntity
  8
0
  6
Continuous
 62
     7
370
    15
100
AcDbLine
 10
1546.1408247702
 20
1450.4158802684
 30
0.0
 11
1546.1408247702
 21
1442.4466293659
 31
0.0
  0
LINE
  5
1ED
330
1F
100
AcDbEntity
  8
0
  6
Continuous
 62
     7
370
    15
100
AcDbLine
 10
1546.1408247702
 20
1468.2809420284
 30
0.0
 11
1546.1408247702
 21
1450.4158802684
 31
0.0
  0
LINE
  5
1EE
330
1F
100
AcDbEntity
  8
0
  6
Continuous
 62
     7
370
    15
100
AcDbLine
 10
1494.5147725284
 20
1295.1821208354
 30
0.0
 11
1494.5147725284
 21
1317.8809404727
 31
0.0
  0
LINE
  5
1EF
330
1F
100
AcDbEntity
  8
0
  6
Continuous
 62
     7
370
    15
100
AcDbLine
 10
1494.5147725284
 20
1292.0466259476
 30
0.0
 11
1494.5147725284
 21
1295.1821208354
 31
0.0
  0
LINE
  5
1F0
330
1F
100
AcDbEntity
  8
0
  6
Continuous
 62
     7
370
    15
100
AcDbLine
 10
1544.5147728078
 20
1304.2840406652
 30
0.0
 11
1544.5147728078
 21
1304.9637869354
 31
0.0
  0
LINE
  5
1F1
330
1F
100
AcDbEntity
  8
0
  6
Continuous
 62
     7
370
    15
100
AcDbLine
 10
1544.5147728078
 20
1289.9637863394
 30
0.0
 11
1544.5147728078
 21
1304.2840406652
 31
0.0
  0
LINE
  5
1F2
330
1F
100
AcDbEntity
  8
0
  6
Continuous
 62
     7
370
    15
100
AcDbLine
 10
1547.5147714369
 20
1304.2840406652
 30
0.0
 11
1547.5147714369
 21
1319.9637875315
 31
0.0
  0
LINE
  5
1F3
330
1F
100
AcDbEntity
  8
0
  6
Continuous
 62
     7
370
    15
100
AcDbLine
 10
1547.5147714369
 20
1289.9637863394
 30
0.0
 11
1547.5147714369
 21
1304.2840406652
 31
0.0
  0
LINE
  5
1F4
330
1F
100
AcDbEntity
  8
0
  6
Continuous
 62
     7
370
    15
100
AcDbLine
 10
1549.5147717648
 20
1304.3746769782
 30
0.0
 11
1549.5147717648
 21
1291.9637829419
 31
0.0
  0
LINE
  5
1F5
330
1F
100
AcDbEntity
  8
0
  6
Continuous
 62
     7
370
    15
100
AcDbLine
 10
1549.5147717648
 20
1317.9637834783
 30
0.0
 11
1549.5147717648
 21
1304.3746769782
 31
0.0
  0
LINE
  5
1F6
330
1F
100
AcDbEntity
  8
0
  6
Continuous
 62
     7
370
    15
100
AcDbLine
 10
1547.5147714369
 20
1347.3451406117
 30
0.0
 11
1547.5147714369
 21
1374.9637872334
 31
0.0
  0
LINE
  5
1F7
330
1F
100
AcDbEntity
  8
0
  6
Continuous
 62
     7
370
    15
100
AcDbLine
 10
1547.5147714369
 20
1344.9637860413
 30
0.0
 11
1547.5147714369
 21
1347.3451406117
 31
0.0
  0
LINE
  5
1F8
330
1F
100
AcDbEntity
  8
0
  6
Continuous
 62
     7
370
    15
100
AcDbLine
 10
1549.5147717648
 20
1349.0276307221
 30
0.0
 11
1549.5147717648
 21
1346.9637826439
 31
0.0
  0
LINE
  5
1F9
330
1F
100
AcDbEntity
  8
0
  6
Continuous
 62
     7
370
    15
100
AcDbLine
 10
1549.5147717648
 20
1372.9637869056
 30
0.0
 11
1549.5147717648
 21
1349.0276307221
 31
0.0
  0
LINE
  5
1FA
330
1F
100
AcDbEntity
  8
0
  6
Continuous
 62
     7
370
    15
100
AcDbLine
 10
1547.5147714369
 20
1493.2840437051
 30
0.0
 11
1547.5147714369
 21
1508.9637831207
 31
0.0
  0
LINE
  5
1FB
330
1F
100
AcDbEntity
  8
0
  6
Continuous
 62
     7
370
    15
100
AcDbLine
 10
1547.5147714369
 20
1478.9637893792
 30
0.0
 11
1547.5147714369
 21
1493.2840437051
 31
0.0
  0
LINE
  5
1FC
330
1F
100
AcDbEntity
  8
0
  6
Continuous
 62
     7
370
    15
100
AcDbLine
 10
1544.5147728078
 20
1493.9637899752
 30
0.0
 11
1544.5147728078
 21
1508.9637831207
 31
0.0
  0
LINE
  5
1FD
330
1F
100
AcDbEntity
  8
0
  6
Continuous
 62
     7
370
    15
100
AcDbLine
 10
1549.5147717648
 20
1493.3746725674
 30
0.0
 11
1549.5147717648
 21
1480.9637859817
 31
0.0
  0
LINE
  5
1FE
330
1F
100
AcDbEntity
  8
0
  6
Continuous
 62
     7
370
    15
100
AcDbLine
 10
1549.5147717648
 20
1506.9637865182
 30
0.0
 11
1549.5147717648
 21
1493.3746725674
 31
0.0
  0
LINE
  5
1FF
330
1F
100
AcDbEntity
  8
0
  6
Continuous
 62
     7
370
    15
100
AcDbLine
 10
1547.5147714369
 20
1433.2840413209
 30
0.0
 11
1547.5147714369
 21
1448.9637881871
 31
0.0
  0
LINE
  5
200
330
1F
100
AcDbEntity
  8
0
  6
Continuous
 62
     7
370
    15
100
AcDbLine
 10
1547.5147714369
 20
1418.9637865294
 30
0.0
 11
1547.5147714369
 21
1433.2840413209
 31
0.0
  0
LINE
  5
201
330
1F
100
AcDbEntity
  8
0
  6
Continuous
 62
     7
370
    15
100
AcDbLine
 10
1549.5147717648
 20
1433.3746739086
 30
0.0
 11
1549.5147717648
 21
1420.9637863915
 31
0.0
  0
LINE
  5
202
330
1F
100
AcDbEntity
  8
0
  6
Continuous
 62
     7
370
    15
100
AcDbLine
 10
1549.5147717648
 20
1446.9637878593
 30
0.0
 11
1549.5147717648
 21
1433.3746739086
 31
0.0
  0
LINE
  5
203
330
1F
100
AcDbEntity
  8
0
  6
Continuous
 62
     7
370
    15
100
AcDbLine
 10
1509.5147726588
 20
1426.9637864437
 30
0.0
 11
1509.5147726588
 21
1439.3637858685
 31
0.0
  0
LINE
  5
204
330
1F
100
AcDbEntity
  8
0
  6
Continuous
 62
     7
370
    15
100
AcDbLine
 10
1510.5147728227
 20
1439.3637858685
 30
0.0
 11
1510.5147728227
 21
1425.9637862798
 31
0.0
  0
LINE
  5
205
330
1F
100
AcDbEntity
  8
0
  6
Continuous
 62
     7
370
    15
100
AcDbLine
 10
1538.3147721641
 20
1425.9637862798
 30
0.0
 11
1538.3147721641
 21
1435.3637870755
 31
0.0
  0
LINE
  5
206
330
1F
100
AcDbEntity
  8
0
  6
Continuous
 62
     7
370
    15
100
AcDbLine
 10
1506.5147730984
 20
1508.7637871857
 30
0.0
 11
1506.5147730984
 21
1479.1637853142
 31
0.0
  0
LINE
  5
207
330
1F
100
AcDbEntity
  8
0
  6
Continuous
 62
     7
370
    15
100
AcDbLine
 10
1503.5147726067
 20
1481.0466289874
 30
0.0
 11
1503.5147726067
 21
1506.8809435125
 31
0.0
  0
LINE
  5
208
330
1F
100
AcDbEntity
  8
0
  6
Continuous
 62
     7
370
    15
100
AcDbLine
 10
1507.0147731804
 20
1522.9637891408
 30
0.0
 11
1507.0147731804
 21
1471.3637873884
 31
0.0
  0
LINE
  5
209
330
1F
100
AcDbEntity
  8
0
  6
Continuous
 62
     7
370
    15
100
AcDbLine
 10
1508.5147724949
 20
1522.9637891408
 30
0.0
 11
1508.5147724949
 21
1471.3637873884
 31
0.0
  0
LINE
  5
20A
330
1F
100
AcDbEntity
  8
0
  6
Continuous
 62
     7
370
    15
100
AcDbLine
 10
1528.0147728972
 20
1471.3637873884
 30
0.0
 11
1528.0147728972
 21
1522.9637891408
 31
0.0
  0
LINE
  5
20B
330
1F
100
AcDbEntity
  8
0
  6
Continuous
 62
     7
370
    15
100
AcDbLine
 10
1526.5147735827
 20
1471.3637873884
 30
0.0
 11
1526.5147735827
 21
1522.9637891408
 31
0.0
  0
LINE
  5
20C
330
1F
100
AcDbEntity
  8
0
  6
Continuous
 62
     7
370
    15
100
AcDbLine
 10
1509.5352012195
 20
1520.4124644752
 30
0.0
 11
1509.5352012195
 21
1522.9637891408
 31
0.0
  0
LINE
  5
20D
330
1F
100
AcDbEntity
  8
0
  6
Continuous
 62
     7
370
    15
100
AcDbLine
 10
1509.5352012195
 20
1471.3637873884
 30
0.0
 11
1509.5352012195
 21
1520.4124644752
 31
0.0
  0
LINE
  5
20E
330
1F
100
AcDbEntity
  8
0
  6
Continuous
 62
     7
370
    15
100
AcDbLine
 10
1525.5464476996
 20
1522.9637891408
 30
0.0
 11
1525.5464476996
 21
1471.3637873884
 31
0.0
  0
LINE
  5
20F
330
1F
100
AcDbEntity
  8
0
  6
Continuous
 62
     7
370
    15
100
AcDbLine
 10
1538.5147718244
 20
1304.9637869354
 30
0.0
 11
1544.5147728078
 21
1304.9637869354
 31
0.0
  0
LINE
  5
210
330
1F
100
AcDbEntity
  8
0
  6
Continuous
 62
     7
370
    15
100
AcDbLine
 10
1538.5147718244
 20
1493.9637899752
 30
0.0
 11
1544.5147728078
 21
1493.9637899752
 31
0.0
  0
LINE
  5
211
330
1F
100
AcDbEntity
  8
0
  6
Continuous
 62
     7
370
    15
100
AcDbLine
 10
1544.5147728078
 20
1304.9637869354
 30
0.0
 11
1544.5147728078
 21
1440.7377343978
 31
0.0
  0
LINE
  5
212
330
1F
100
AcDbEntity
  8
0
  6
Continuous
 62
     7
370
    15
100
AcDbLine
 10
1544.5147728078
 20
1469.9898369964
 30
0.0
 11
1544.5147728078
 21
1493.9637899752
 31
0.0
  0
LINE
  5
213
330
1F
100
AcDbEntity
  8
0
  6
Continuous
 62
     7
370
    15
100
AcDbLine
 10
1538.5147718244
 20
1414.9637863394
 30
0.0
 11
1538.5147718244
 21
1435.3637870755
 31
0.0
  0
LINE
  5
214
330
1F
100
AcDbEntity
  8
0
  6
Continuous
 62
     7
370
    15
100
AcDbLine
 10
1538.5147718244
 20
1475.3637880441
 30
0.0
 11
1538.5147718244
 21
1493.9637899752
 31
0.0
  0
LINE
  5
215
330
1F
100
AcDbEntity
  8
0
  6
Continuous
 62
     7
370
    15
100
AcDbLine
 10
1544.5147728078
 20
1289.9637863394
 30
0.0
 11
1544.5147728078
 21
1304.9637869354
 31
0.0
  0
ARC
  5
216
330
1F
100
AcDbEntity
  8
0
  6
Continuous
 62
     7
370
    15
100
AcDbCircle
 10
1541.5148218643
 20
1275.0084583584
 30
0.0
 40
15.04606830648453
100
AcDbArc
 50
83.7042889556
 51
96.2170864708
  0
LINE
  5
217
330
1F
100
AcDbEntity
  8
0
  6
Continuous
 62
     7
370
    15
100
AcDbLine
 10
1538.5147718244
 20
1493.9637899752
 30
0.0
 11
1538.5147718244
 21
1508.9637831207
 31
0.0
  0
LINE
  5
218
330
1F
100
AcDbEntity
  8
0
  6
Continuous
 62
     7
370
    15
100
AcDbLine
 10
1528.5147720479
 20
1493.2976335641
 30
0.0
 11
1528.5147720479
 21
1508.663785493
 31
0.0
  0
LINE
  5
219
330
1F
100
AcDbEntity
  8
0
  6
Continuous
 62
     7
370
    15
100
AcDbLine
 10
1528.5147720479
 20
1479.2637870069
 30
0.0
 11
1528.5147720479
 21
1493.2976335641
 31
0.0
  0
LINE
  5
21A
330
1F
100
AcDbEntity
  8
0
  6
Continuous
 62
     7
370
    15
100
AcDbLine
 10
1528.8147734009
 20
1493.2840437051
 30
0.0
 11
1528.8147734009
 21
1478.9637893792
 31
0.0
  0
LINE
  5
21B
330
1F
100
AcDbEntity
  8
0
  6
Continuous
 62
     7
370
    15
100
AcDbLine
 10
1528.8147734009
 20
1508.9637831207
 30
0.0
 11
1528.8147734009
 21
1493.2840437051
 31
0.0
  0
LINE
  5
21C
330
1F
100
AcDbEntity
  8
0
  6
Continuous
 62
     7
370
    15
100
AcDbLine
 10
1534.214773541
 20
1493.2840437051
 30
0.0
 11
1534.214773541
 21
1508.9637831207
 31
0.0
  0
LINE
  5
21D
330
1F
100
AcDbEntity
  8
0
  6
Continuous
 62
     7
370
    15
100
AcDbLine
 10
1534.214773541
 20
1478.9637893792
 30
0.0
 11
1534.214773541
 21
1493.2840437051
 31
0.0
  0
LINE
  5
21E
330
1F
100
AcDbEntity
  8
0
  6
Continuous
 62
     7
370
    15
100
AcDbLine
 10
1515.014772629
 20
-635.0361659769
 30
0.0
 11
1515.014772629
 21
-615.0361850504
 31
0.0
  0
LINE
  5
21F
330
1F
100
AcDbEntity
  8
0
  6
Continuous
 62
     7
370
    15
100
AcDbLine
 10
1498.5147727184
 20
1414.9637863394
 30
0.0
 11
1498.5147727184
 21
-635.0361659769
 31
0.0
  0
LINE
  5
220
330
1F
100
AcDbEntity
  8
0
  6
Continuous
 62
     7
370
    15
100
AcDbLine
 10
1538.5147718244
 20
1414.9637863394
 30
0.0
 11
1538.5147718244
 21
-635.0361659769
 31
0.0
  0
LINE
  5
221
330
1F
100
AcDbEntity
  8
0
  6
Continuous
 62
     7
370
    15
100
AcDbLine
 10
1538.5147718244
 20
-635.0361659769
 30
0.0
 11
1522.0147719138
 21
-635.0361659769
 31
0.0
  0
LINE
  5
222
330
1F
100
AcDbEntity
  8
0
  6
Continuous
 62
     7
370
    15
100
AcDbLine
 10
1522.0147719138
 20
-615.0361850504
 30
0.0
 11
1522.0147719138
 21
-635.0361659769
 31
0.0
  0
LINE
  5
223
330
1F
100
AcDbEntity
  8
0
  6
Continuous
 62
     7
370
    15
100
AcDbLine
 10
1515.014772629
 20
-615.0361850504
 30
0.0
 11
1522.0147719138
 21
-615.0361850504
 31
0.0
  0
LINE
  5
224
330
1F
100
AcDbEntity
  8
0
  6
Continuous
 62
     7
370
    15
100
AcDbLine
 10
1515.014772629
 20
-635.0361659769
 30
0.0
 11
1498.5147727184
 21
-635.0361659769
 31
0.0
  0
LINE
  5
225
330
1F
100
AcDbEntity
  8
0
  6
Continuous
 62
     7
370
    15
100
AcDbLine
 10
1538.5147718244
 20
1414.9637863394
 30
0.0
 11
1498.5147727184
 21
1414.9637863394
 31
0.0
  0
LINE
  5
226
330
1F
100
AcDbEntity
  8
0
  6
Continuous
 62
     7
370
    15
100
AcDbLine
 10
1484.0408240907
 20
1480.3637832757
 30
0.0
 11
1484.0408240907
 21
1430.3637862559
 31
0.0
  0
LINE
  5
227
330
1F
100
AcDbEntity
  8
0
  6
Continuous
 62
     7
370
    15
100
AcDbLine
 10
1486.0408244186
 20
1430.3637862559
 30
0.0
 11
1486.0408244186
 21
1480.3637832757
 31
0.0
  0
LINE
  5
228
330
1F
100
AcDbEntity
  8
0
  6
Continuous
 62
     7
370
    15
100
AcDbLine
 10
1487.0408245825
 20
1479.3637886997
 30
0.0
 11
1487.0408245825
 21
1431.3637864198
 31
0.0
  0
LINE
  5
229
330
1F
100
AcDbEntity
  8
0
  6
Continuous
 62
     8
370
    15
100
AcDbLine
 10
1496.5976153963
 20
1372.9972400125
 30
0.0
 11
1496.5976153963
 21
1344.9637860413
 31
0.0
  0
LINE
  5
22A
330
1F
100
AcDbEntity
  8
0
  6
Continuous
 62
     8
370
    15
100
AcDbLine
 10
1496.5976153963
 20
1374.9637872334
 30
0.0
 11
1496.5976153963
 21
1372.9972400125
 31
0.0
  0
LINE
  5
22B
330
1F
100
AcDbEntity
  8
0
  6
Continuous
 62
     8
370
    15
100
AcDbLine
 10
1496.4561940633
 20
1345.022362506
 30
0.0
 11
1496.4561940633
 21
1374.9052070435
 31
0.0
  0
LINE
  5
22C
330
1F
100
AcDbEntity
  8
0
  6
Continuous
 62
     8
370
    15
100
AcDbLine
 10
1498.3147727235
 20
1344.9637860413
 30
0.0
 11
1498.3147727235
 21
1374.9637872334
 31
0.0
  0
LINE
  5
22D
330
1F
100
AcDbEntity
  8
0
  6
Continuous
 62
     8
370
    15
100
AcDbLine
 10
1494.5733513214
 20
1373.0223633703
 30
0.0
 11
1494.5733513214
 21
1346.9052061792
 31
0.0
  0
LINE
  5
22E
330
1F
100
AcDbEntity
  8
0
  6
Continuous
 62
     8
370
    15
100
AcDbLine
 10
1542.3408237748
 20
1449.6180497464
 30
0.0
 11
1542.3408237748
 21
1440.3637860324
 31
0.0
  0
LINE
  5
22F
330
1F
100
AcDbEntity
  8
0
  6
Continuous
 62
     8
370
    15
100
AcDbLine
 10
1542.3408237748
 20
1470.3637853618
 30
0.0
 11
1542.3408237748
 21
1449.6180497464
 31
0.0
  0
LINE
  5
230
330
1F
100
AcDbEntity
  8
0
  6
Continuous
 62
     8
370
    15
100
AcDbLine
 10
1544.0579814367
 20
1440.3637860324
 30
0.0
 11
1544.0579814367
 21
1470.3637853618
 31
0.0
  0
LINE
  5
231
330
1F
100
AcDbEntity
  8
0
  6
Continuous
 62
     8
370
    15
100
AcDbLine
 10
1544.1994046323
 20
1449.6404908951
 30
0.0
 11
1544.1994046323
 21
1440.4223643597
 31
0.0
  0
LINE
  5
232
330
1F
100
AcDbEntity
  8
0
  6
Continuous
 62
     8
370
    15
100
AcDbLine
 10
1544.1994046323
 20
1470.3052088972
 30
0.0
 11
1544.1994046323
 21
1449.6404908951
 31
0.0
  0
LINE
  5
233
330
1F
100
AcDbEntity
  8
0
  6
Continuous
 62
     8
370
    15
100
AcDbLine
 10
1546.0822445803
 20
1450.3617108222
 30
0.0
 11
1546.0822445803
 21
1468.422365224
 31
0.0
  0
LINE
  5
234
330
1F
100
AcDbEntity
  8
0
  6
Continuous
 62
     8
370
    15
100
AcDbLine
 10
1546.0822445803
 20
1442.3052080329
 30
0.0
 11
1546.0822445803
 21
1450.3617108222
 31
0.0
  0
LINE
  5
235
330
1F
100
AcDbEntity
  8
0
  6
Continuous
 62
     8
370
    15
100
AcDbLine
 10
1496.5976153963
 20
1319.9637875315
 30
0.0
 11
1496.5976153963
 21
1289.9637863394
 31
0.0
  0
LINE
  5
236
330
1F
100
AcDbEntity
  8
0
  6
Continuous
 62
     8
370
    15
100
AcDbLine
 10
1496.4561940633
 20
1293.6492234822
 30
0.0
 11
1496.4561940633
 21
1319.9052110668
 31
0.0
  0
LINE
  5
237
330
1F
100
AcDbEntity
  8
0
  6
Continuous
 62
     8
370
    15
100
AcDbLine
 10
1496.4561940633
 20
1290.022362804
 30
0.0
 11
1496.4561940633
 21
1293.6492234822
 31
0.0
  0
LINE
  5
238
330
1F
100
AcDbEntity
  8
0
  6
Continuous
 62
     8
370
    15
100
AcDbLine
 10
1498.3147727235
 20
1293.6048627253
 30
0.0
 11
1498.3147727235
 21
1319.9637875315
 31
0.0
  0
LINE
  5
239
330
1F
100
AcDbEntity
  8
0
  6
Continuous
 62
     8
370
    15
100
AcDbLine
 10
1498.3147727235
 20
1289.9637863394
 30
0.0
 11
1498.3147727235
 21
1293.6048627253
 31
0.0
  0
LINE
  5
23A
330
1F
100
AcDbEntity
  8
0
  6
Continuous
 62
     8
370
    15
100
AcDbLine
 10
1494.5733513214
 20
1295.0750261899
 30
0.0
 11
1494.5733513214
 21
1291.9052064772
 31
0.0
  0
LINE
  5
23B
330
1F
100
AcDbEntity
  8
0
  6
Continuous
 62
     8
370
    15
100
AcDbLine
 10
1494.5733513214
 20
1318.0223673936
 30
0.0
 11
1494.5733513214
 21
1295.0750261899
 31
0.0
  0
LINE
  5
23C
330
1F
100
AcDbEntity
  8
0
  6
Continuous
 62
     8
370
    15
100
AcDbLine
 10
1505.5976154745
 20
1489.0744507666
 30
0.0
 11
1505.5976154745
 21
1478.9637893792
 31
0.0
  0
LINE
  5
23D
330
1F
100
AcDbEntity
  8
0
  6
Continuous
 62
     8
370
    15
100
AcDbLine
 10
1505.5976154745
 20
1508.9637831207
 30
0.0
 11
1505.5976154745
 21
1489.0744507666
 31
0.0
  0
LINE
  5
23E
330
1F
100
AcDbEntity
  8
0
  6
Continuous
 62
     8
370
    15
100
AcDbLine
 10
1506.3147725068
 20
1478.9637893792
 30
0.0
 11
1506.3147725068
 21
1508.9637831207
 31
0.0
  0
LINE
  5
23F
330
1F
100
AcDbEntity
  8
0
  6
Continuous
 62
     8
370
    15
100
AcDbLine
 10
1505.4561941415
 20
1479.0223658439
 30
0.0
 11
1505.4561941415
 21
1508.9052066561
 31
0.0
  0
LINE
  5
240
330
1F
100
AcDbEntity
  8
0
  6
Continuous
 62
     8
370
    15
100
AcDbLine
 10
1503.5733513996
 20
1507.0223629828
 30
0.0
 11
1503.5733513996
 21
1480.9052095171
 31
0.0
  0
LINE
  5
241
330
1F
100
AcDbEntity
  8
0
  6
Continuous
 62
     7
370
    15
100
AcDbLine
 10
-787.7265863791
 20
-725.3316619718
 30
0.0
 11
-797.7005370632
 21
-725.3316619718
 31
0.0
  0
LINE
  5
242
330
1F
100
AcDbEntity
  8
0
  6
Continuous
 62
     7
370
    15
100
AcDbLine
 10
-826.7526381389
 20
-725.3316619718
 30
0.0
 11
-830.2265831009
 21
-725.3316619718
 31
0.0
  0
LINE
  5
243
330
1F
100
AcDbEntity
  8
0
  6
Continuous
 62
     7
370
    15
100
AcDbLine
 10
-862.2265846208
 20
-725.3316619718
 30
0.0
 11
-910.2265852709
 21
-725.3316619718
 31
0.0
  0
LINE
  5
244
330
1F
100
AcDbEntity
  8
0
  6
Continuous
 62
     7
370
    15
100
AcDbLine
 10
-277.726558663
 20
-725.3316619718
 30
0.0
 11
-772.7444448248
 21
-725.3316619718
 31
0.0
  0
LINE
  5
245
330
1F
100
AcDbEntity
  8
0
  6
Continuous
 62
     7
370
    15
100
AcDbLine
 10
232.2734318003
 20
-725.3316619718
 30
0.0
 11
-97.7005042806
 21
-725.3316619718
 31
0.0
  0
LINE
  5
246
330
1F
100
AcDbEntity
  8
0
  6
Continuous
 62
     7
370
    15
100
AcDbLine
 10
-126.7526426092
 20
-725.3316619718
 30
0.0
 11
-262.7444543615
 21
-725.3316619718
 31
0.0
  0
LINE
  5
247
330
1F
100
AcDbEntity
  8
0
  6
Continuous
 62
     7
370
    15
100
AcDbLine
 10
742.2734222635
 20
-725.3316619718
 30
0.0
 11
247.253986381
 21
-725.3316619718
 31
0.0
  0
LINE
  5
248
330
1F
100
AcDbEntity
  8
0
  6
Continuous
 62
     7
370
    15
100
AcDbLine
 10
1252.2734127268
 20
-725.3316619718
 30
0.0
 11
757.255526565
 21
-725.3316619718
 31
0.0
  0
LINE
  5
249
330
1F
100
AcDbEntity
  8
0
  6
Continuous
 62
     7
370
    15
100
AcDbLine
 10
1389.7734604105
 20
-725.3316619718
 30
0.0
 11
1341.7733631357
 21
-725.3316619718
 31
0.0
  0
LINE
  5
24A
330
1F
100
AcDbEntity
  8
0
  6
Continuous
 62
     7
370
    15
100
AcDbLine
 10
1309.7732982859
 20
-725.3316619718
 30
0.0
 11
1267.2556362375
 21
-725.3316619718
 31
0.0
  0
LINE
  5
24B
330
1F
100
AcDbEntity
  8
0
  6
Continuous
 62
     7
370
    15
100
AcDbLine
 10
1267.323347114
 20
-750.3316618787
 30
0.0
 11
1309.7732982859
 21
-750.3316618787
 31
0.0
  0
LINE
  5
24C
330
1F
100
AcDbEntity
  8
0
  6
Continuous
 62
     7
370
    15
100
AcDbLine
 10
1341.7733631357
 20
-750.3316618787
 30
0.0
 11
1389.7734604105
 21
-750.3316618787
 31
0.0
  0
LINE
  5
24D
330
1F
100
AcDbEntity
  8
0
  6
Continuous
 62
     7
370
    15
100
AcDbLine
 10
757.3233566507
 20
-750.3316618787
 30
0.0
 11
1252.2552929148
 21
-750.3316618787
 31
0.0
  0
LINE
  5
24E
330
1F
100
AcDbEntity
  8
0
  6
Continuous
 62
     7
370
    15
100
AcDbLine
 10
247.3233661875
 20
-750.3316618787
 30
0.0
 11
742.2554216608
 21
-750.3316618787
 31
0.0
  0
LINE
  5
24F
330
1F
100
AcDbEntity
  8
0
  6
Continuous
 62
     7
370
    15
100
AcDbLine
 10
-262.6765646711
 20
-750.3316618787
 30
0.0
 11
-127.2265591398
 21
-750.3316618787
 31
0.0
  0
LINE
  5
250
330
1F
100
AcDbEntity
  8
0
  6
Continuous
 62
     7
370
    15
100
AcDbLine
 10
-97.22658775
 20
-750.3316618787
 30
0.0
 11
232.2554311976
 21
-750.3316618787
 31
0.0
  0
LINE
  5
251
330
1F
100
AcDbEntity
  8
0
  6
Continuous
 62
     7
370
    15
100
AcDbLine
 10
-772.6765849367
 20
-750.3316618787
 30
0.0
 11
-277.7446188703
 21
-750.3316618787
 31
0.0
  0
LINE
  5
252
330
1F
100
AcDbEntity
  8
0
  6
Continuous
 62
     7
370
    15
100
AcDbLine
 10
-910.2265852709
 20
-750.3316618787
 30
0.0
 11
-862.2265846208
 21
-750.3316618787
 31
0.0
  0
LINE
  5
253
330
1F
100
AcDbEntity
  8
0
  6
Continuous
 62
     7
370
    15
100
AcDbLine
 10
-830.2265831009
 20
-750.3316618787
 30
0.0
 11
-827.2265844718
 21
-750.3316618787
 31
0.0
  0
LINE
  5
254
330
1F
100
AcDbEntity
  8
0
  6
Continuous
 62
     7
370
    15
100
AcDbLine
 10
-797.2265832797
 20
-750.3316618787
 30
0.0
 11
-787.7446242348
 21
-750.3316618787
 31
0.0
  0
LINE
  5
255
330
1F
100
AcDbEntity
  8
0
  6
Continuous
 62
     7
370
    15
100
AcDbLine
 10
-866.2265852764
 20
-754.4316605018
 30
0.0
 11
-866.2265852764
 21
-762.4316618131
 31
0.0
  0
LINE
  5
256
330
1F
100
AcDbEntity
  8
0
  6
Continuous
 62
     7
370
    15
100
AcDbLine
 10
1305.7733497843
 20
-754.4316605018
 30
0.0
 11
1305.7733497843
 21
-762.4316618131
 31
0.0
  0
LINE
  5
257
330
1F
100
AcDbEntity
  8
0
  6
Continuous
 62
     7
370
    15
100
AcDbLine
 10
1345.7733116373
 20
-762.4316618131
 30
0.0
 11
1345.7733116373
 21
-754.4316605018
 31
0.0
  0
LINE
  5
258
330
1F
100
AcDbEntity
  8
0
  6
Continuous
 62
     7
370
    15
100
AcDbLine
 10
1341.7733631357
 20
-723.6316620657
 30
0.0
 11
1339.9733028635
 21
-721.8316618638
 31
0.0
  0
LINE
  5
259
330
1F
100
AcDbEntity
  8
0
  6
Continuous
 62
     7
370
    15
100
AcDbLine
 10
1311.5733585581
 20
-721.8316618638
 30
0.0
 11
1309.7732982859
 21
-723.6316620657
 31
0.0
  0
LINE
  5
25A
330
1F
100
AcDbEntity
  8
0
  6
Continuous
 62
     7
370
    15
100
AcDbLine
 10
1309.7732982859
 20
-750.3316618787
 30
0.0
 11
1309.7732982859
 21
-754.4316605018
 31
0.0
  0
LINE
  5
25B
330
1F
100
AcDbEntity
  8
0
  6
Continuous
 62
     7
370
    15
100
AcDbLine
 10
1309.7732982859
 20
-723.6316620657
 30
0.0
 11
1309.7732982859
 21
-725.231661676
 31
0.0
  0
LINE
  5
25C
330
1F
100
AcDbEntity
  8
0
  6
Continuous
 62
     7
370
    15
100
AcDbLine
 10
1341.7733631357
 20
-725.231661676
 30
0.0
 11
1341.7733631357
 21
-723.6316620657
 31
0.0
  0
LINE
  5
25D
330
1F
100
AcDbEntity
  8
0
  6
Continuous
 62
     7
370
    15
100
AcDbLine
 10
1341.7733631357
 20
-754.4316605018
 30
0.0
 11
1341.7733631357
 21
-750.3316618787
 31
0.0
  0
LINE
  5
25E
330
1F
100
AcDbEntity
  8
0
  6
Continuous
 62
     7
370
    15
100
AcDbLine
 10
-830.2265831009
 20
-723.6316620657
 30
0.0
 11
-832.0265837684
 21
-721.8316618638
 31
0.0
  0
LINE
  5
25F
330
1F
100
AcDbEntity
  8
0
  6
Continuous
 62
     7
370
    15
100
AcDbLine
 10
-860.4265839532
 20
-721.8316618638
 30
0.0
 11
-862.2265846208
 21
-723.6316620657
 31
0.0
  0
LINE
  5
260
330
1F
100
AcDbEntity
  8
0
  6
Continuous
 62
     7
370
    15
100
AcDbLine
 10
-862.2265846208
 20
-750.3316618787
 30
0.0
 11
-862.2265846208
 21
-754.4316605018
 31
0.0
  0
LINE
  5
261
330
1F
100
AcDbEntity
  8
0
  6
Continuous
 62
     7
370
    15
100
AcDbLine
 10
-862.2265846208
 20
-723.6316620657
 30
0.0
 11
-862.2265846208
 21
-725.231661676
 31
0.0
  0
LINE
  5
262
330
1F
100
AcDbEntity
  8
0
  6
Continuous
 62
     7
370
    15
100
AcDbLine
 10
-830.2265831009
 20
-725.231661676
 30
0.0
 11
-830.2265831009
 21
-723.6316620657
 31
0.0
  0
LINE
  5
263
330
1F
100
AcDbEntity
  8
0
  6
Continuous
 62
     7
370
    15
100
AcDbLine
 10
-830.2265831009
 20
-754.4316605018
 30
0.0
 11
-830.2265831009
 21
-750.3316618787
 31
0.0
  0
LINE
  5
264
330
1F
100
AcDbEntity
  8
0
  6
Continuous
 62
     7
370
    15
100
AcDbLine
 10
1252.2734127268
 20
-707.331662281
 30
0.0
 11
1252.2734127268
 21
-725.3316619718
 31
0.0
  0
LINE
  5
265
330
1F
100
AcDbEntity
  8
0
  6
Continuous
 62
     7
370
    15
100
AcDbLine
 10
1267.273517631
 20
-725.3316619718
 30
0.0
 11
1267.273517631
 21
-707.331662281
 31
0.0
  0
LINE
  5
266
330
1F
100
AcDbEntity
  8
0
  6
Continuous
 62
     7
370
    15
100
AcDbLine
 10
-277.726558663
 20
-707.331662281
 30
0.0
 11
-277.726558663
 21
-725.3316619718
 31
0.0
  0
LINE
  5
267
330
1F
100
AcDbEntity
  8
0
  6
Continuous
 62
     7
370
    15
100
AcDbLine
 10
-262.7265729681
 20
-725.3316619718
 30
0.0
 11
-262.7265729681
 21
-707.331662281
 31
0.0
  0
LINE
  5
268
330
1F
100
AcDbEntity
  8
0
  6
Continuous
 62
     7
370
    15
100
AcDbLine
 10
232.2734318003
 20
-707.331662281
 30
0.0
 11
232.2734318003
 21
-725.3316619718
 31
0.0
  0
LINE
  5
269
330
1F
100
AcDbEntity
  8
0
  6
Continuous
 62
     7
370
    15
100
AcDbLine
 10
247.2734174952
 20
-725.3316619718
 30
0.0
 11
247.2734174952
 21
-707.331662281
 31
0.0
  0
LINE
  5
26A
330
1F
100
AcDbEntity
  8
0
  6
Continuous
 62
     7
370
    15
100
AcDbLine
 10
742.2734222635
 20
-707.331662281
 30
0.0
 11
742.2734222635
 21
-725.3316619718
 31
0.0
  0
LINE
  5
26B
330
1F
100
AcDbEntity
  8
0
  6
Continuous
 62
     7
370
    15
100
AcDbLine
 10
757.2734079584
 20
-725.3316619718
 30
0.0
 11
757.2734079584
 21
-707.331662281
 31
0.0
  0
LINE
  5
26C
330
1F
100
AcDbEntity
  8
0
  6
Continuous
 62
     7
370
    15
100
AcDbLine
 10
-787.7265863791
 20
-707.331662281
 30
0.0
 11
-787.7265863791
 21
-725.3316619718
 31
0.0
  0
LINE
  5
26D
330
1F
100
AcDbEntity
  8
0
  6
Continuous
 62
     7
370
    15
100
AcDbLine
 10
-772.7265783325
 20
-725.3316619718
 30
0.0
 11
-772.7265783325
 21
-707.331662281
 31
0.0
  0
LINE
  5
26E
330
1F
100
AcDbEntity
  8
0
  6
Continuous
 62
     7
370
    15
100
AcDbLine
 10
-910.4265853968
 20
-750.3316618787
 30
0.0
 11
-910.2265852709
 21
-750.1316622184
 31
0.0
  0
LINE
  5
26F
330
1F
100
AcDbEntity
  8
0
  6
Continuous
 62
     7
370
    15
100
AcDbLine
 10
-910.2265852709
 20
-725.5316616321
 30
0.0
 11
-910.4265853968
 21
-725.3316619718
 31
0.0
  0
LINE
  5
270
330
1F
100
AcDbEntity
  8
0
  6
Continuous
 62
     7
370
    15
100
AcDbLine
 10
-912.0265853709
 20
-750.3316618787
 30
0.0
 11
-910.4265853968
 21
-750.3316618787
 31
0.0
  0
LINE
  5
271
330
1F
100
AcDbEntity
  8
0
  6
Continuous
 62
     7
370
    15
100
AcDbLine
 10
-910.4265853968
 20
-725.3316619718
 30
0.0
 11
-912.0265853709
 21
-725.3316619718
 31
0.0
  0
LINE
  5
272
330
1F
100
AcDbEntity
  8
0
  6
Continuous
 62
     7
370
    15
100
AcDbLine
 10
-912.0265853709
 20
-725.3316619718
 30
0.0
 11
-912.2265853659
 21
-725.5316616321
 31
0.0
  0
LINE
  5
273
330
1F
100
AcDbEntity
  8
0
  6
Continuous
 62
     7
370
    15
100
AcDbLine
 10
-912.2265853659
 20
-750.1316622184
 30
0.0
 11
-912.0265853709
 21
-750.3316618787
 31
0.0
  0
LINE
  5
274
330
1F
100
AcDbEntity
  8
0
  6
Continuous
 62
     7
370
    15
100
AcDbLine
 10
1391.5735206827
 20
-725.3316619718
 30
0.0
 11
1389.9734935984
 21
-725.3316619718
 31
0.0
  0
LINE
  5
275
330
1F
100
AcDbEntity
  8
0
  6
Continuous
 62
     7
370
    15
100
AcDbLine
 10
1389.9734935984
 20
-750.3316618787
 30
0.0
 11
1391.5735206827
 21
-750.3316618787
 31
0.0
  0
LINE
  5
276
330
1F
100
AcDbEntity
  8
0
  6
Continuous
 62
     7
370
    15
100
AcDbLine
 10
1389.9734935984
 20
-725.3316619718
 30
0.0
 11
1389.7734604105
 21
-725.5316616321
 31
0.0
  0
LINE
  5
277
330
1F
100
AcDbEntity
  8
0
  6
Continuous
 62
     7
370
    15
100
AcDbLine
 10
1389.7734604105
 20
-750.1316622184
 30
0.0
 11
1389.9734935984
 21
-750.3316618787
 31
0.0
  0
LINE
  5
278
330
1F
100
AcDbEntity
  8
0
  6
Continuous
 62
     7
370
    15
100
AcDbLine
 10
1391.5735206827
 20
-750.3316618787
 30
0.0
 11
1391.773315452
 21
-750.1316622184
 31
0.0
  0
LINE
  5
279
330
1F
100
AcDbEntity
  8
0
  6
Continuous
 62
     7
370
    15
100
AcDbLine
 10
1391.773315452
 20
-725.5316616321
 30
0.0
 11
1391.5735206827
 21
-725.3316619718
 31
0.0
  0
LINE
  5
27A
330
1F
100
AcDbEntity
  8
0
  6
Continuous
 62
     7
370
    15
100
AcDbLine
 10
-97.22658775
 20
-755.0056122528
 30
0.0
 11
-97.4265613333
 21
-754.8056088673
 31
0.0
  0
LINE
  5
27B
330
1F
100
AcDbEntity
  8
0
  6
Continuous
 62
     7
370
    15
100
AcDbLine
 10
-127.0265855566
 20
-754.8056088673
 30
0.0
 11
-127.2265591398
 21
-755.0056122528
 31
0.0
  0
LINE
  5
27C
330
1F
100
AcDbEntity
  8
0
  6
Continuous
 62
     7
370
    15
100
AcDbLine
 10
-127.2265591398
 20
-755.0056122528
 30
0.0
 11
-127.2265591398
 21
-758.6056098627
 31
0.0
  0
LINE
  5
27D
330
1F
100
AcDbEntity
  8
0
  6
Continuous
 62
     7
370
    15
100
AcDbLine
 10
-97.22658775
 20
-758.6056098627
 30
0.0
 11
-97.22658775
 21
-755.0056122528
 31
0.0
  0
LINE
  5
27E
330
1F
100
AcDbEntity
  8
0
  6
Continuous
 62
     7
370
    15
100
AcDbLine
 10
-127.2265591398
 20
-758.6056098627
 30
0.0
 11
-127.0265855566
 21
-758.8056095229
 31
0.0
  0
LINE
  5
27F
330
1F
100
AcDbEntity
  8
0
  6
Continuous
 62
     7
370
    15
100
AcDbLine
 10
-97.4265613333
 20
-758.8056095229
 30
0.0
 11
-97.22658775
 21
-758.6056098627
 31
0.0
  0
LINE
  5
280
330
1F
100
AcDbEntity
  8
0
  6
Continuous
 62
     7
370
    15
100
AcDbLine
 10
-827.2265844718
 20
-755.0056122528
 30
0.0
 11
-827.2265844718
 21
-758.6056098627
 31
0.0
  0
LINE
  5
281
330
1F
100
AcDbEntity
  8
0
  6
Continuous
 62
     7
370
    15
100
AcDbLine
 10
-797.2265832797
 20
-758.6056098627
 30
0.0
 11
-797.2265832797
 21
-755.0056122528
 31
0.0
  0
LINE
  5
282
330
1F
100
AcDbEntity
  8
0
  6
Continuous
 62
     7
370
    15
100
AcDbLine
 10
-797.2265832797
 20
-755.0056122528
 30
0.0
 11
-797.4265866652
 21
-754.8056088673
 31
0.0
  0
LINE
  5
283
330
1F
100
AcDbEntity
  8
0
  6
Continuous
 62
     7
370
    15
100
AcDbLine
 10
-827.0265885368
 20
-754.8056088673
 30
0.0
 11
-827.2265844718
 21
-755.0056122528
 31
0.0
  0
LINE
  5
284
330
1F
100
AcDbEntity
  8
0
  6
Continuous
 62
     7
370
    15
100
AcDbLine
 10
-827.2265844718
 20
-758.6056098627
 30
0.0
 11
-827.0265885368
 21
-758.8056095229
 31
0.0
  0
LINE
  5
285
330
1F
100
AcDbEntity
  8
0
  6
Continuous
 62
     7
370
    15
100
AcDbLine
 10
-797.4265866652
 20
-758.8056095229
 30
0.0
 11
-797.2265832797
 21
-758.6056098627
 31
0.0
  0
LINE
  5
286
330
1F
100
AcDbEntity
  8
0
  6
Continuous
 62
     7
370
    15
100
AcDbLine
 10
-127.2265591398
 20
-716.8884530948
 30
0.0
 11
-127.2265591398
 21
-718.6056104221
 31
0.0
  0
LINE
  5
287
330
1F
100
AcDbEntity
  8
0
  6
Continuous
 62
     7
370
    15
100
AcDbLine
 10
-97.22658775
 20
-718.6056104221
 30
0.0
 11
-97.22658775
 21
-716.8884530948
 31
0.0
  0
ARC
  5
288
330
1F
100
AcDbEntity
  8
0
  6
Continuous
 62
     7
370
    15
100
AcDbCircle
 10
-127.0265853659
 20
-716.8884531295
 30
0.0
 40
0.1999999999999886
100
AcDbArc
 50
135.0
 51
180.0
  0
ARC
  5
289
330
1F
100
AcDbEntity
  8
0
  6
Continuous
 62
     7
370
    15
100
AcDbCircle
 10
-97.4265853659
 20
-716.8884531295
 30
0.0
 40
0.1999999999999744
100
AcDbArc
 50
0.0
 51
45.0
  0
ARC
  5
28A
330
1F
100
AcDbEntity
  8
0
  6
Continuous
 62
     7
370
    15
100
AcDbCircle
 10
-97.4265853659
 20
-718.605610417
 30
0.0
 40
0.1999999999999744
100
AcDbArc
 50
270.0
 51
0.0
  0
ARC
  5
28B
330
1F
100
AcDbEntity
  8
0
  6
Continuous
 62
     7
370
    15
100
AcDbCircle
 10
-127.0265853659
 20
-718.605610417
 30
0.0
 40
0.1999999999999886
100
AcDbArc
 50
180.0
 51
270.0
  0
LINE
  5
28C
330
1F
100
AcDbEntity
  8
0
  6
Continuous
 62
     7
370
    15
100
AcDbLine
 10
-97.2851791159
 20
-716.7470317619
 30
0.0
 11
-99.1680302397
 21
-714.86418902
 31
0.0
  0
LINE
  5
28D
330
1F
100
AcDbEntity
  8
0
  6
Continuous
 62
     7
370
    15
100
AcDbLine
 10
-125.2851762548
 20
-714.86418902
 30
0.0
 11
-127.1680273786
 21
-716.7470317619
 31
0.0
  0
ARC
  5
28E
330
1F
100
AcDbEntity
  8
0
  6
Continuous
 62
     7
370
    15
100
AcDbCircle
 10
-99.3094280783
 20
-715.005610417
 30
0.0
 40
0.2000000000000455
100
AcDbArc
 50
45.0
 51
90.0
  0
ARC
  5
28F
330
1F
100
AcDbEntity
  8
0
  6
Continuous
 62
     7
370
    15
100
AcDbCircle
 10
-125.1437426534
 20
-715.005610417
 30
0.0
 40
0.2000000000000455
100
AcDbArc
 50
90.0
 51
135.0
  0
LINE
  5
290
330
1F
100
AcDbEntity
  8
0
  6
Continuous
 62
     7
370
    15
100
AcDbLine
 10
-827.2265844718
 20
-716.8884530948
 30
0.0
 11
-827.2265844718
 21
-718.6056104221
 31
0.0
  0
LINE
  5
291
330
1F
100
AcDbEntity
  8
0
  6
Continuous
 62
     7
370
    15
100
AcDbLine
 10
-797.2265832797
 20
-718.6056104221
 30
0.0
 11
-797.2265832797
 21
-716.8884530948
 31
0.0
  0
ARC
  5
292
330
1F
100
AcDbEntity
  8
0
  6
Continuous
 62
     7
370
    15
100
AcDbCircle
 10
-827.0265853659
 20
-716.8884531295
 30
0.0
 40
0.2000000000000498
100
AcDbArc
 50
135.0
 51
180.0
  0
ARC
  5
293
330
1F
100
AcDbEntity
  8
0
  6
Continuous
 62
     7
370
    15
100
AcDbCircle
 10
-797.4265853659
 20
-716.8884531295
 30
0.0
 40
0.2000000000000498
100
AcDbArc
 50
0.0
 51
45.0
  0
ARC
  5
294
330
1F
100
AcDbEntity
  8
0
  6
Continuous
 62
     7
370
    15
100
AcDbCircle
 10
-797.4265853659
 20
-718.605610417
 30
0.0
 40
0.1999999999999318
100
AcDbArc
 50
270.0
 51
0.0
  0
ARC
  5
295
330
1F
100
AcDbEntity
  8
0
  6
Continuous
 62
     7
370
    15
100
AcDbCircle
 10
-827.0265853659
 20
-718.605610417
 30
0.0
 40
0.1999999999999318
100
AcDbArc
 50
180.0
 51
270.0
  0
LINE
  5
296
330
1F
100
AcDbEntity
  8
0
  6
Continuous
 62
     7
370
    15
100
AcDbLine
 10
-797.2851671949
 20
-716.7470317619
 30
0.0
 11
-799.1680034176
 21
-714.86418902
 31
0.0
  0
LINE
  5
297
330
1F
100
AcDbEntity
  8
0
  6
Continuous
 62
     7
370
    15
100
AcDbLine
 10
-825.2851643339
 20
-714.86418902
 30
0.0
 11
-827.1680080071
 21
-716.7470317619
 31
0.0
  0
ARC
  5
298
330
1F
100
AcDbEntity
  8
0
  6
Continuous
 62
     7
370
    15
100
AcDbCircle
 10
-799.3094280783
 20
-715.005610417
 30
0.0
 40
0.2000000000000498
100
AcDbArc
 50
45.0
 51
90.0
  0
ARC
  5
299
330
1F
100
AcDbEntity
  8
0
  6
Continuous
 62
     7
370
    15
100
AcDbCircle
 10
-825.1437426534
 20
-715.005610417
 30
0.0
 40
0.2000000000000498
100
AcDbArc
 50
90.0
 51
135.0
  0
LINE
  5
29A
330
1F
100
AcDbEntity
  8
0
  6
Continuous
 62
     7
370
    15
100
AcDbLine
 10
-831.2265851274
 20
-764.3488191353
 30
0.0
 11
-831.2265851274
 21
-762.6316614734
 31
0.0
  0
LINE
  5
29B
330
1F
100
AcDbEntity
  8
0
  6
Continuous
 62
     7
370
    15
100
AcDbLine
 10
-861.2265863195
 20
-762.6316614734
 30
0.0
 11
-861.2265863195
 21
-764.3488191353
 31
0.0
  0
ARC
  5
29C
330
1F
100
AcDbEntity
  8
0
  6
Continuous
 62
     7
370
    15
100
AcDbCircle
 10
-861.0265853659
 20
-762.6316618403
 30
0.0
 40
0.1999999999999318
100
AcDbArc
 50
90.0
 51
180.0
  0
ARC
  5
29D
330
1F
100
AcDbEntity
  8
0
  6
Continuous
 62
     7
370
    15
100
AcDbCircle
 10
-831.4265853659
 20
-762.6316618403
 30
0.0
 40
0.2000000000000455
100
AcDbArc
 50
0.0
 51
90.0
  0
ARC
  5
29E
330
1F
100
AcDbEntity
  8
0
  6
Continuous
 62
     7
370
    15
100
AcDbCircle
 10
-831.4265853659
 20
-764.3488191278
 30
0.0
 40
0.2000000000000498
100
AcDbArc
 50
315.0
 51
0.0
  0
ARC
  5
29F
330
1F
100
AcDbEntity
  8
0
  6
Continuous
 62
     7
370
    15
100
AcDbCircle
 10
-861.0265853659
 20
-764.3488191278
 30
0.0
 40
0.2000000000000498
100
AcDbArc
 50
180.0
 51
225.0
  0
LINE
  5
2A0
330
1F
100
AcDbEntity
  8
0
  6
Continuous
 62
     7
370
    15
100
AcDbLine
 10
-861.1680061296
 20
-764.4902423309
 30
0.0
 11
-859.2851624564
 21
-766.3730822788
 31
0.0
  0
LINE
  5
2A1
330
1F
100
AcDbEntity
  8
0
  6
Continuous
 62
     7
370
    15
100
AcDbLine
 10
-833.1680052653
 20
-766.3730822788
 30
0.0
 11
-831.2851615921
 21
-764.4902423309
 31
0.0
  0
ARC
  5
2A2
330
1F
100
AcDbEntity
  8
0
  6
Continuous
 62
     7
370
    15
100
AcDbCircle
 10
-859.1437426534
 20
-766.2316618403
 30
0.0
 40
0.2000000000000498
100
AcDbArc
 50
225.0
 51
270.0
  0
ARC
  5
2A3
330
1F
100
AcDbEntity
  8
0
  6
Continuous
 62
     7
370
    15
100
AcDbCircle
 10
-833.3094280783
 20
-766.2316618403
 30
0.0
 40
0.2000000000000498
100
AcDbArc
 50
270.0
 51
315.0
  0
ARC
  5
2A4
330
1F
100
AcDbEntity
  8
0
  6
Continuous
 62
     7
370
    15
100
AcDbCircle
 10
1310.9734146341
 20
-762.6316618403
 30
0.0
 40
0.2000000000000455
100
AcDbArc
 50
90.0
 51
180.0
  0
ARC
  5
2A5
330
1F
100
AcDbEntity
  8
0
  6
Continuous
 62
     7
370
    15
100
AcDbCircle
 10
1340.5734146341
 20
-762.6316618403
 30
0.0
 40
0.2000000000000455
100
AcDbArc
 50
0.0
 51
90.0
  0
LINE
  5
2A6
330
1F
100
AcDbEntity
  8
0
  6
Continuous
 62
     7
370
    15
100
AcDbLine
 10
1340.773435615
 20
-764.3488191353
 30
0.0
 11
1340.773435615
 21
-762.6316614734
 31
0.0
  0
LINE
  5
2A7
330
1F
100
AcDbEntity
  8
0
  6
Continuous
 62
     7
370
    15
100
AcDbLine
 10
1310.7734642252
 20
-762.6316614734
 30
0.0
 11
1310.7734642252
 21
-764.3488191353
 31
0.0
  0
ARC
  5
2A8
330
1F
100
AcDbEntity
  8
0
  6
Continuous
 62
     7
370
    15
100
AcDbCircle
 10
1340.5734146341
 20
-764.3488191278
 30
0.0
 40
0.2000000000000498
100
AcDbArc
 50
315.0
 51
0.0
  0
ARC
  5
2A9
330
1F
100
AcDbEntity
  8
0
  6
Continuous
 62
     7
370
    15
100
AcDbCircle
 10
1310.9734146341
 20
-764.3488191278
 30
0.0
 40
0.2000000000000498
100
AcDbArc
 50
180.0
 51
225.0
  0
LINE
  5
2AA
330
1F
100
AcDbEntity
  8
0
  6
Continuous
 62
     7
370
    15
100
AcDbLine
 10
1310.8318767771
 20
-764.4902423309
 30
0.0
 11
1312.7149067148
 21
-766.3730822788
 31
0.0
  0
LINE
  5
2AB
330
1F
100
AcDbEntity
  8
0
  6
Continuous
 62
     7
370
    15
100
AcDbLine
 10
1338.8319931254
 20
-766.3730822788
 30
0.0
 11
1340.7147846445
 21
-764.4902423309
 31
0.0
  0
ARC
  5
2AC
330
1F
100
AcDbEntity
  8
0
  6
Continuous
 62
     7
370
    15
100
AcDbCircle
 10
1312.8562573466
 20
-766.2316618403
 30
0.0
 40
0.2000000000000455
100
AcDbArc
 50
225.0
 51
270.0
  0
ARC
  5
2AD
330
1F
100
AcDbEntity
  8
0
  6
Continuous
 62
     7
370
    15
100
AcDbCircle
 10
1338.6905719217
 20
-766.2316618403
 30
0.0
 40
0.2000000000000455
100
AcDbArc
 50
270.0
 51
315.0
  0
LINE
  5
2AE
330
1F
100
AcDbEntity
  8
0
  6
Continuous
 62
     7
370
    15
100
AcDbLine
 10
-797.2265832797
 20
-767.8056091355
 30
0.0
 11
-797.2265832797
 21
-764.8056105064
 31
0.0
  0
LINE
  5
2AF
330
1F
100
AcDbEntity
  8
0
  6
Continuous
 62
     7
370
    15
100
AcDbLine
 10
-827.2265844718
 20
-764.8056105064
 30
0.0
 11
-827.2265844718
 21
-767.8056091355
 31
0.0
  0
LINE
  5
2B0
330
1F
100
AcDbEntity
  8
0
  6
Continuous
 62
     7
370
    15
100
AcDbLine
 10
-827.2265844718
 20
-767.8056091355
 30
0.0
 11
-825.2265878692
 21
-769.8056094633
 31
0.0
  0
LINE
  5
2B1
330
1F
100
AcDbEntity
  8
0
  6
Continuous
 62
     7
370
    15
100
AcDbLine
 10
-799.2265873328
 20
-769.8056094633
 30
0.0
 11
-797.2265832797
 21
-767.8056091355
 31
0.0
  0
LINE
  5
2B2
330
1F
100
AcDbEntity
  8
0
  6
Continuous
 62
     7
370
    15
100
AcDbLine
 10
-97.22658775
 20
-767.8056091355
 30
0.0
 11
-97.22658775
 21
-764.8056105064
 31
0.0
  0
LINE
  5
2B3
330
1F
100
AcDbEntity
  8
0
  6
Continuous
 62
     7
370
    15
100
AcDbLine
 10
-127.2265591398
 20
-764.8056105064
 30
0.0
 11
-127.2265591398
 21
-767.8056091355
 31
0.0
  0
LINE
  5
2B4
330
1F
100
AcDbEntity
  8
0
  6
Continuous
 62
     7
370
    15
100
AcDbLine
 10
-127.2265591398
 20
-767.8056091355
 30
0.0
 11
-125.226584889
 21
-769.8056094633
 31
0.0
  0
LINE
  5
2B5
330
1F
100
AcDbEntity
  8
0
  6
Continuous
 62
     7
370
    15
100
AcDbLine
 10
-99.2265620008
 20
-769.8056094633
 30
0.0
 11
-97.22658775
 21
-767.8056091355
 31
0.0
  0
LINE
  5
2B6
330
1F
100
AcDbEntity
  8
0
  6
Continuous
 62
     7
370
    15
100
AcDbLine
 10
-127.2265591398
 20
-725.8884531731
 30
0.0
 11
-127.2265591398
 21
-726.6056102054
 31
0.0
  0
LINE
  5
2B7
330
1F
100
AcDbEntity
  8
0
  6
Continuous
 62
     7
370
    15
100
AcDbLine
 10
-97.22658775
 20
-726.6056102054
 30
0.0
 11
-97.22658775
 21
-725.8884531731
 31
0.0
  0
ARC
  5
2B8
330
1F
100
AcDbEntity
  8
0
  6
Continuous
 62
     7
370
    15
100
AcDbCircle
 10
-97.4265853659
 20
-726.605610417
 30
0.0
 40
0.1999999999999744
100
AcDbArc
 50
270.0
 51
0.0
  0
ARC
  5
2B9
330
1F
100
AcDbEntity
  8
0
  6
Continuous
 62
     7
370
    15
100
AcDbCircle
 10
-127.0265853659
 20
-726.605610417
 30
0.0
 40
0.1999999999999744
100
AcDbArc
 50
180.0
 51
270.0
  0
ARC
  5
2BA
330
1F
100
AcDbEntity
  8
0
  6
Continuous
 62
     7
370
    15
100
AcDbCircle
 10
-127.0265853659
 20
-725.8884531295
 30
0.0
 40
0.1999999999999744
100
AcDbArc
 50
135.0
 51
180.0
  0
ARC
  5
2BB
330
1F
100
AcDbEntity
  8
0
  6
Continuous
 62
     7
370
    15
100
AcDbCircle
 10
-97.4265853659
 20
-725.8884531295
 30
0.0
 40
0.1999999999999744
100
AcDbArc
 50
0.0
 51
45.0
  0
LINE
  5
2BC
330
1F
100
AcDbEntity
  8
0
  6
Continuous
 62
     7
370
    15
100
AcDbLine
 10
-97.2851791159
 20
-725.7470318401
 30
0.0
 11
-99.1680302397
 21
-723.8641890982
 31
0.0
  0
LINE
  5
2BD
330
1F
100
AcDbEntity
  8
0
  6
Continuous
 62
     7
370
    15
100
AcDbLine
 10
-125.2851762548
 20
-723.8641890982
 30
0.0
 11
-127.1680273786
 21
-725.7470318401
 31
0.0
  0
ARC
  5
2BE
330
1F
100
AcDbEntity
  8
0
  6
Continuous
 62
     7
370
    15
100
AcDbCircle
 10
-99.3094280783
 20
-724.005610417
 30
0.0
 40
0.2000000000000455
100
AcDbArc
 50
45.0
 51
90.0
  0
ARC
  5
2BF
330
1F
100
AcDbEntity
  8
0
  6
Continuous
 62
     7
370
    15
100
AcDbCircle
 10
-125.1437426534
 20
-724.005610417
 30
0.0
 40
0.2000000000000455
100
AcDbArc
 50
90.0
 51
135.0
  0
LINE
  5
2C0
330
1F
100
AcDbEntity
  8
0
  6
Continuous
 62
     7
370
    15
100
AcDbLine
 10
-102.4765648619
 20
-727.3056108789
 30
0.0
 11
-102.4765648619
 21
-726.805610797
 31
0.0
  0
LINE
  5
2C1
330
1F
100
AcDbEntity
  8
0
  6
Continuous
 62
     7
370
    15
100
AcDbLine
 10
-121.976582028
 20
-726.805610797
 30
0.0
 11
-121.976582028
 21
-727.3056108789
 31
0.0
  0
ARC
  5
2C2
330
1F
100
AcDbEntity
  8
0
  6
Continuous
 62
     7
370
    15
100
AcDbCircle
 10
-827.0265853659
 20
-725.8884531295
 30
0.0
 40
0.2000000000000498
100
AcDbArc
 50
135.0
 51
180.0
  0
ARC
  5
2C3
330
1F
100
AcDbEntity
  8
0
  6
Continuous
 62
     7
370
    15
100
AcDbCircle
 10
-797.4265853659
 20
-725.8884531295
 30
0.0
 40
0.1999999999999318
100
AcDbArc
 50
0.0
 51
45.0
  0
LINE
  5
2C4
330
1F
100
AcDbEntity
  8
0
  6
Continuous
 62
     7
370
    15
100
AcDbLine
 10
-827.2265844718
 20
-725.8884531731
 30
0.0
 11
-827.2265844718
 21
-726.6056102054
 31
0.0
  0
LINE
  5
2C5
330
1F
100
AcDbEntity
  8
0
  6
Continuous
 62
     7
370
    15
100
AcDbLine
 10
-797.2265832797
 20
-726.6056102054
 30
0.0
 11
-797.2265832797
 21
-725.8884531731
 31
0.0
  0
ARC
  5
2C6
330
1F
100
AcDbEntity
  8
0
  6
Continuous
 62
     7
370
    15
100
AcDbCircle
 10
-797.4265853659
 20
-726.605610417
 30
0.0
 40
0.1999999999999318
100
AcDbArc
 50
270.0
 51
0.0
  0
ARC
  5
2C7
330
1F
100
AcDbEntity
  8
0
  6
Continuous
 62
     7
370
    15
100
AcDbCircle
 10
-827.0265853659
 20
-726.605610417
 30
0.0
 40
0.1999999999999318
100
AcDbArc
 50
180.0
 51
270.0
  0
LINE
  5
2C8
330
1F
100
AcDbEntity
  8
0
  6
Continuous
 62
     7
370
    15
100
AcDbLine
 10
-797.2851671949
 20
-725.7470318401
 30
0.0
 11
-799.1680034176
 21
-723.8641890982
 31
0.0
  0
LINE
  5
2C9
330
1F
100
AcDbEntity
  8
0
  6
Continuous
 62
     7
370
    15
100
AcDbLine
 10
-825.2851643339
 20
-723.8641890982
 30
0.0
 11
-827.1680080071
 21
-725.7470318401
 31
0.0
  0
ARC
  5
2CA
330
1F
100
AcDbEntity
  8
0
  6
Continuous
 62
     7
370
    15
100
AcDbCircle
 10
-799.3094280783
 20
-724.005610417
 30
0.0
 40
0.2000000000000455
100
AcDbArc
 50
45.0
 51
90.0
  0
ARC
  5
2CB
330
1F
100
AcDbEntity
  8
0
  6
Continuous
 62
     7
370
    15
100
AcDbCircle
 10
-825.1437426534
 20
-724.005610417
 30
0.0
 40
0.2000000000000498
100
AcDbArc
 50
90.0
 51
135.0
  0
LINE
  5
2CC
330
1F
100
AcDbEntity
  8
0
  6
Continuous
 62
     7
370
    15
100
AcDbLine
 10
-802.4765827432
 20
-727.3056108789
 30
0.0
 11
-802.4765827432
 21
-726.805610797
 31
0.0
  0
LINE
  5
2CD
330
1F
100
AcDbEntity
  8
0
  6
Continuous
 62
     7
370
    15
100
AcDbLine
 10
-821.9765850082
 20
-726.805610797
 30
0.0
 11
-821.9765850082
 21
-727.3056108789
 31
0.0
  0
LINE
  5
2CE
330
1F
100
AcDbEntity
  8
0
  6
Continuous
 62
     7
370
    15
100
AcDbLine
 10
-841.2265830413
 20
-727.3056108789
 30
0.0
 11
-841.2265830413
 21
-728.8056101935
 31
0.0
  0
LINE
  5
2CF
330
1F
100
AcDbEntity
  8
0
  6
Continuous
 62
     7
370
    15
100
AcDbLine
 10
-783.2265921608
 20
-728.8056101935
 30
0.0
 11
-783.2265921608
 21
-727.3056108789
 31
0.0
  0
LINE
  5
2D0
330
1F
100
AcDbEntity
  8
0
  6
Continuous
 62
     7
370
    15
100
AcDbLine
 10
-83.2265891806
 20
-748.3056105958
 30
0.0
 11
-83.2265891806
 21
-746.8056112813
 31
0.0
  0
LINE
  5
2D1
330
1F
100
AcDbEntity
  8
0
  6
Continuous
 62
     7
370
    15
100
AcDbLine
 10
-141.2265577093
 20
-746.8056112813
 30
0.0
 11
-141.2265577093
 21
-748.3056105958
 31
0.0
  0
LINE
  5
2D2
330
1F
100
AcDbEntity
  8
0
  6
Continuous
 62
     7
370
    15
100
AcDbLine
 10
-141.2265577093
 20
-727.3056108789
 30
0.0
 11
-141.2265577093
 21
-728.8056101935
 31
0.0
  0
LINE
  5
2D3
330
1F
100
AcDbEntity
  8
0
  6
Continuous
 62
     7
370
    15
100
AcDbLine
 10
-83.2265891806
 20
-728.8056101935
 30
0.0
 11
-83.2265891806
 21
-727.3056108789
 31
0.0
  0
LINE
  5
2D4
330
1F
100
AcDbEntity
  8
0
  6
Continuous
 62
     7
370
    15
100
AcDbLine
 10
-783.2265921608
 20
-748.3056105958
 30
0.0
 11
-783.2265921608
 21
-746.8056112813
 31
0.0
  0
LINE
  5
2D5
330
1F
100
AcDbEntity
  8
0
  6
Continuous
 62
     7
370
    15
100
AcDbLine
 10
-841.2265830413
 20
-746.8056112813
 30
0.0
 11
-841.2265830413
 21
-748.3056105958
 31
0.0
  0
ARC
  5
2D6
330
1F
100
AcDbEntity
  8
0
  6
Continuous
 62
     7
370
    15
100
AcDbCircle
 10
-73.6265853659
 20
-737.8316618403
 30
0.0
 40
12.50000000000001
100
AcDbArc
 50
140.1746287392
 51
219.8253712608
  0
ARC
  5
2D7
330
1F
100
AcDbEntity
  8
0
  6
Continuous
 62
     7
370
    15
100
AcDbCircle
 10
-150.8265853659
 20
-737.8316618403
 30
0.0
 40
12.50000000000001
100
AcDbArc
 50
320.1746287392
 51
39.8253712608
  0
LINE
  5
2D8
330
1F
100
AcDbEntity
  8
0
  6
Continuous
 62
     7
370
    15
100
AcDbLine
 10
-83.2265891806
 20
-729.8260389181
 30
0.0
 11
-83.2265891806
 21
-728.8056101935
 31
0.0
  0
LINE
  5
2D9
330
1F
100
AcDbEntity
  8
0
  6
Continuous
 62
     7
370
    15
100
AcDbLine
 10
-141.2265577093
 20
-728.8056101935
 30
0.0
 11
-141.2265577093
 21
-729.8260389181
 31
0.0
  0
LINE
  5
2DA
330
1F
100
AcDbEntity
  8
0
  6
Continuous
 62
     7
370
    15
100
AcDbLine
 10
-83.2265891806
 20
-746.8056112813
 30
0.0
 11
-83.2265891806
 21
-745.8372853981
 31
0.0
  0
LINE
  5
2DB
330
1F
100
AcDbEntity
  8
0
  6
Continuous
 62
     7
370
    15
100
AcDbLine
 10
-141.2265577093
 20
-745.8372853981
 30
0.0
 11
-141.2265577093
 21
-746.8056112813
 31
0.0
  0
ARC
  5
2DC
330
1F
100
AcDbEntity
  8
0
  6
Continuous
 62
     7
370
    15
100
AcDbCircle
 10
-773.6265853659
 20
-737.8316618403
 30
0.0
 40
12.5
100
AcDbArc
 50
140.1746287392
 51
219.8253712608
  0
ARC
  5
2DD
330
1F
100
AcDbEntity
  8
0
  6
Continuous
 62
     7
370
    15
100
AcDbCircle
 10
-850.8265853659
 20
-737.8316618403
 30
0.0
 40
12.50000000000009
100
AcDbArc
 50
320.1746287392
 51
39.8253712608
  0
LINE
  5
2DE
330
1F
100
AcDbEntity
  8
0
  6
Continuous
 62
     7
370
    15
100
AcDbLine
 10
-783.2265921608
 20
-729.8260389181
 30
0.0
 11
-783.2265921608
 21
-728.8056101935
 31
0.0
  0
LINE
  5
2DF
330
1F
100
AcDbEntity
  8
0
  6
Continuous
 62
     7
370
    15
100
AcDbLine
 10
-841.2265830413
 20
-728.8056101935
 30
0.0
 11
-841.2265830413
 21
-729.8260389181
 31
0.0
  0
LINE
  5
2E0
330
1F
100
AcDbEntity
  8
0
  6
Continuous
 62
     7
370
    15
100
AcDbLine
 10
-783.2265921608
 20
-746.8056112813
 30
0.0
 11
-783.2265921608
 21
-745.8372853981
 31
0.0
  0
LINE
  5
2E1
330
1F
100
AcDbEntity
  8
0
  6
Continuous
 62
     7
370
    15
100
AcDbLine
 10
-841.2265830413
 20
-745.8372853981
 30
0.0
 11
-841.2265830413
 21
-746.8056112813
 31
0.0
  0
LINE
  5
2E2
330
1F
100
AcDbEntity
  8
0
  6
Continuous
 62
     7
370
    15
100
AcDbLine
 10
-797.2265832797
 20
-749.1056110995
 30
0.0
 11
-797.526588358
 21
-748.8056097464
 31
0.0
  0
LINE
  5
2E3
330
1F
100
AcDbEntity
  8
0
  6
Continuous
 62
     7
370
    15
100
AcDbLine
 10
-826.926586844
 20
-748.8056097464
 30
0.0
 11
-827.2265844718
 21
-749.1056110995
 31
0.0
  0
LINE
  5
2E4
330
1F
100
AcDbEntity
  8
0
  6
Continuous
 62
     7
370
    15
100
AcDbLine
 10
-797.2265832797
 20
-754.5056112395
 30
0.0
 11
-797.2265832797
 21
-749.1056110995
 31
0.0
  0
LINE
  5
2E5
330
1F
100
AcDbEntity
  8
0
  6
Continuous
 62
     7
370
    15
100
AcDbLine
 10
-827.2265844718
 20
-749.1056110995
 30
0.0
 11
-827.2265844718
 21
-754.5056112395
 31
0.0
  0
LINE
  5
2E6
330
1F
100
AcDbEntity
  8
0
  6
Continuous
 62
     7
370
    15
100
AcDbLine
 10
-827.2265844718
 20
-754.5056112395
 30
0.0
 11
-826.926586844
 21
-754.8056088673
 31
0.0
  0
LINE
  5
2E7
330
1F
100
AcDbEntity
  8
0
  6
Continuous
 62
     7
370
    15
100
AcDbLine
 10
-797.526588358
 20
-754.8056088673
 30
0.0
 11
-797.2265832797
 21
-754.5056112395
 31
0.0
  0
LINE
  5
2E8
330
1F
100
AcDbEntity
  8
0
  6
Continuous
 62
     7
370
    15
100
AcDbLine
 10
-802.4765827432
 20
-748.8056097464
 30
0.0
 11
-802.4765827432
 21
-748.3056105958
 31
0.0
  0
LINE
  5
2E9
330
1F
100
AcDbEntity
  8
0
  6
Continuous
 62
     7
370
    15
100
AcDbLine
 10
-821.9765850082
 20
-748.3056105958
 30
0.0
 11
-821.9765850082
 21
-748.8056097464
 31
0.0
  0
LINE
  5
2EA
330
1F
100
AcDbEntity
  8
0
  6
Continuous
 62
     7
370
    15
100
AcDbLine
 10
-97.22658775
 20
-749.1056110995
 30
0.0
 11
-97.5265779272
 21
-748.8056097464
 31
0.0
  0
LINE
  5
2EB
330
1F
100
AcDbEntity
  8
0
  6
Continuous
 62
     7
370
    15
100
AcDbLine
 10
-126.9265689627
 20
-748.8056097464
 30
0.0
 11
-127.2265591398
 21
-749.1056110995
 31
0.0
  0
LINE
  5
2EC
330
1F
100
AcDbEntity
  8
0
  6
Continuous
 62
     7
370
    15
100
AcDbLine
 10
-97.22658775
 20
-754.5056112395
 30
0.0
 11
-97.22658775
 21
-749.1056110995
 31
0.0
  0
LINE
  5
2ED
330
1F
100
AcDbEntity
  8
0
  6
Continuous
 62
     7
370
    15
100
AcDbLine
 10
-127.2265591398
 20
-749.1056110995
 30
0.0
 11
-127.2265591398
 21
-754.5056112395
 31
0.0
  0
LINE
  5
2EE
330
1F
100
AcDbEntity
  8
0
  6
Continuous
 62
     7
370
    15
100
AcDbLine
 10
-127.2265591398
 20
-754.5056112395
 30
0.0
 11
-126.9265689627
 21
-754.8056088673
 31
0.0
  0
LINE
  5
2EF
330
1F
100
AcDbEntity
  8
0
  6
Continuous
 62
     7
370
    15
100
AcDbLine
 10
-97.5265779272
 20
-754.8056088673
 30
0.0
 11
-97.22658775
 21
-754.5056112395
 31
0.0
  0
LINE
  5
2F0
330
1F
100
AcDbEntity
  8
0
  6
Continuous
 62
     7
370
    15
100
AcDbLine
 10
-102.4765648619
 20
-748.8056097464
 30
0.0
 11
-102.4765648619
 21
-748.3056105958
 31
0.0
  0
LINE
  5
2F1
330
1F
100
AcDbEntity
  8
0
  6
Continuous
 62
     7
370
    15
100
AcDbLine
 10
-121.976582028
 20
-748.3056105958
 30
0.0
 11
-121.976582028
 21
-748.8056097464
 31
0.0
  0
LINE
  5
2F2
330
1F
100
AcDbEntity
  8
0
  6
Continuous
 62
     7
370
    15
100
AcDbLine
 10
-277.6766099707
 20
-750.3316618787
 30
0.0
 11
-277.6766099707
 21
-751.0193616437
 31
0.0
  0
LINE
  5
2F3
330
1F
100
AcDbEntity
  8
0
  6
Continuous
 62
     7
370
    15
100
AcDbLine
 10
-262.7765812651
 20
-751.0193616437
 30
0.0
 11
-262.7765812651
 21
-750.3316618787
 31
0.0
  0
LINE
  5
2F4
330
1F
100
AcDbEntity
  8
0
  6
Continuous
 62
     7
370
    15
100
AcDbLine
 10
-277.6766099707
 20
-751.0193616437
 30
0.0
 11
-276.6765632406
 21
-752.0193636702
 31
0.0
  0
LINE
  5
2F5
330
1F
100
AcDbEntity
  8
0
  6
Continuous
 62
     7
370
    15
100
AcDbLine
 10
-263.7765683905
 20
-752.0193636702
 30
0.0
 11
-262.7765812651
 21
-751.0193616437
 31
0.0
  0
LINE
  5
2F6
330
1F
100
AcDbEntity
  8
0
  6
Continuous
 62
     7
370
    15
100
AcDbLine
 10
232.3233804926
 20
-750.3316618787
 30
0.0
 11
232.3233804926
 21
-751.0193616437
 31
0.0
  0
LINE
  5
2F7
330
1F
100
AcDbEntity
  8
0
  6
Continuous
 62
     7
370
    15
100
AcDbLine
 10
247.2234688028
 20
-751.0193616437
 30
0.0
 11
247.2234688028
 21
-750.3316618787
 31
0.0
  0
LINE
  5
2F8
330
1F
100
AcDbEntity
  8
0
  6
Continuous
 62
     7
370
    15
100
AcDbLine
 10
232.3233804926
 20
-751.0193616437
 30
0.0
 11
233.3234272226
 21
-752.0193636702
 31
0.0
  0
LINE
  5
2F9
330
1F
100
AcDbEntity
  8
0
  6
Continuous
 62
     7
370
    15
100
AcDbLine
 10
246.2234220728
 20
-752.0193636702
 30
0.0
 11
247.2234688028
 21
-751.0193616437
 31
0.0
  0
LINE
  5
2FA
330
1F
100
AcDbEntity
  8
0
  6
Continuous
 62
     7
370
    15
100
AcDbLine
 10
742.3233709559
 20
-750.3316618787
 30
0.0
 11
742.3233709559
 21
-751.0193616437
 31
0.0
  0
LINE
  5
2FB
330
1F
100
AcDbEntity
  8
0
  6
Continuous
 62
     7
370
    15
100
AcDbLine
 10
757.2234592661
 20
-751.0193616437
 30
0.0
 11
757.2234592661
 21
-750.3316618787
 31
0.0
  0
LINE
  5
2FC
330
1F
100
AcDbEntity
  8
0
  6
Continuous
 62
     7
370
    15
100
AcDbLine
 10
742.3233709559
 20
-751.0193616437
 30
0.0
 11
743.3234176859
 21
-752.0193636702
 31
0.0
  0
LINE
  5
2FD
330
1F
100
AcDbEntity
  8
0
  6
Continuous
 62
     7
370
    15
100
AcDbLine
 10
756.2234125361
 20
-752.0193636702
 30
0.0
 11
757.2234592661
 21
-751.0193616437
 31
0.0
  0
LINE
  5
2FE
330
1F
100
AcDbEntity
  8
0
  6
Continuous
 62
     7
370
    15
100
AcDbLine
 10
-787.6765855327
 20
-750.3316618787
 30
0.0
 11
-787.6765855327
 21
-751.0193616437
 31
0.0
  0
LINE
  5
2FF
330
1F
100
AcDbEntity
  8
0
  6
Continuous
 62
     7
370
    15
100
AcDbLine
 10
-772.7765866295
 20
-751.0193616437
 30
0.0
 11
-772.7765866295
 21
-750.3316618787
 31
0.0
  0
LINE
  5
300
330
1F
100
AcDbEntity
  8
0
  6
Continuous
 62
     7
370
    15
100
AcDbLine
 10
-787.6765855327
 20
-751.0193616437
 30
0.0
 11
-786.6765835062
 21
-752.0193636702
 31
0.0
  0
LINE
  5
301
330
1F
100
AcDbEntity
  8
0
  6
Continuous
 62
     7
370
    15
100
AcDbLine
 10
-773.776588656
 20
-752.0193636702
 30
0.0
 11
-772.7765866295
 21
-751.0193616437
 31
0.0
  0
LINE
  5
302
330
1F
100
AcDbEntity
  8
0
  6
Continuous
 62
     7
370
    15
100
AcDbLine
 10
1252.3234806284
 20
-750.3316618787
 30
0.0
 11
1252.3234806284
 21
-751.0193616437
 31
0.0
  0
LINE
  5
303
330
1F
100
AcDbEntity
  8
0
  6
Continuous
 62
     7
370
    15
100
AcDbLine
 10
1267.2234497294
 20
-751.0193616437
 30
0.0
 11
1267.2234497294
 21
-750.3316618787
 31
0.0
  0
LINE
  5
304
330
1F
100
AcDbEntity
  8
0
  6
Continuous
 62
     7
370
    15
100
AcDbLine
 10
1252.3234806284
 20
-751.0193616437
 30
0.0
 11
1253.3234081492
 21
-752.0193636702
 31
0.0
  0
LINE
  5
305
330
1F
100
AcDbEntity
  8
0
  6
Continuous
 62
     7
370
    15
100
AcDbLine
 10
1266.2235222086
 20
-752.0193636702
 30
0.0
 11
1267.2234497294
 21
-751.0193616437
 31
0.0
  0
LINE
  5
306
330
1F
100
AcDbEntity
  8
0
  6
Continuous
 62
     7
370
    15
100
AcDbLine
 10
-805.226584591
 20
-704.3316617893
 30
0.0
 11
-805.226584591
 21
-706.3316621171
 31
0.0
  0
LINE
  5
307
330
1F
100
AcDbEntity
  8
0
  6
Continuous
 62
     7
370
    15
100
AcDbLine
 10
-755.2265801206
 20
-706.3316621171
 30
0.0
 11
-755.2265801206
 21
-704.3316617893
 31
0.0
  0
LINE
  5
308
330
1F
100
AcDbEntity
  8
0
  6
Continuous
 62
     7
370
    15
100
AcDbLine
 10
-805.226584591
 20
-706.3316621171
 30
0.0
 11
-804.2265825644
 21
-707.331662281
 31
0.0
  0
LINE
  5
309
330
1F
100
AcDbEntity
  8
0
  6
Continuous
 62
     7
370
    15
100
AcDbLine
 10
-756.2265821472
 20
-707.331662281
 30
0.0
 11
-755.2265801206
 21
-706.3316621171
 31
0.0
  0
LINE
  5
30A
330
1F
100
AcDbEntity
  8
0
  6
Continuous
 62
     7
370
    15
100
AcDbLine
 10
-295.2266015783
 20
-704.3316617893
 30
0.0
 11
-295.2266015783
 21
-706.3316621171
 31
0.0
  0
LINE
  5
30B
330
1F
100
AcDbEntity
  8
0
  6
Continuous
 62
     7
370
    15
100
AcDbLine
 10
-245.2265896574
 20
-706.3316621171
 30
0.0
 11
-245.2265896574
 21
-704.3316617893
 31
0.0
  0
LINE
  5
30C
330
1F
100
AcDbEntity
  8
0
  6
Continuous
 62
     7
370
    15
100
AcDbLine
 10
-295.2266015783
 20
-706.3316621171
 30
0.0
 11
-294.2266144529
 21
-707.331662281
 31
0.0
  0
LINE
  5
30D
330
1F
100
AcDbEntity
  8
0
  6
Continuous
 62
     7
370
    15
100
AcDbLine
 10
-246.2265767828
 20
-707.331662281
 30
0.0
 11
-245.2265896574
 21
-706.3316621171
 31
0.0
  0
LINE
  5
30E
330
1F
100
AcDbEntity
  8
0
  6
Continuous
 62
     7
370
    15
100
AcDbLine
 10
724.7733793482
 20
-704.3316617893
 30
0.0
 11
724.7733793482
 21
-706.3316621171
 31
0.0
  0
LINE
  5
30F
330
1F
100
AcDbEntity
  8
0
  6
Continuous
 62
     7
370
    15
100
AcDbLine
 10
774.7734508738
 20
-706.3316621171
 30
0.0
 11
774.7734508738
 21
-704.3316617893
 31
0.0
  0
LINE
  5
310
330
1F
100
AcDbEntity
  8
0
  6
Continuous
 62
     7
370
    15
100
AcDbLine
 10
724.7733793482
 20
-706.3316621171
 30
0.0
 11
725.7734260782
 21
-707.331662281
 31
0.0
  0
LINE
  5
311
330
1F
100
AcDbEntity
  8
0
  6
Continuous
 62
     7
370
    15
100
AcDbLine
 10
773.7734041437
 20
-707.331662281
 30
0.0
 11
774.7734508738
 21
-706.3316621171
 31
0.0
  0
LINE
  5
312
330
1F
100
AcDbEntity
  8
0
  6
Continuous
 62
     7
370
    15
100
AcDbLine
 10
1234.7734890207
 20
-704.3316617893
 30
0.0
 11
1234.7734890207
 21
-706.3316621171
 31
0.0
  0
LINE
  5
313
330
1F
100
AcDbEntity
  8
0
  6
Continuous
 62
     7
370
    15
100
AcDbLine
 10
1284.773441337
 20
-706.3316621171
 30
0.0
 11
1284.773441337
 21
-704.3316617893
 31
0.0
  0
LINE
  5
314
330
1F
100
AcDbEntity
  8
0
  6
Continuous
 62
     7
370
    15
100
AcDbLine
 10
1234.7734890207
 20
-706.3316621171
 30
0.0
 11
1235.7734165415
 21
-707.331662281
 31
0.0
  0
LINE
  5
315
330
1F
100
AcDbEntity
  8
0
  6
Continuous
 62
     7
370
    15
100
AcDbLine
 10
1283.7735138163
 20
-707.331662281
 30
0.0
 11
1284.773441337
 21
-706.3316621171
 31
0.0
  0
LINE
  5
316
330
1F
100
AcDbEntity
  8
0
  6
Continuous
 62
     7
370
    15
100
AcDbLine
 10
214.7733888849
 20
-704.3316617893
 30
0.0
 11
214.7733888849
 21
-706.3316621171
 31
0.0
  0
LINE
  5
317
330
1F
100
AcDbEntity
  8
0
  6
Continuous
 62
     7
370
    15
100
AcDbLine
 10
264.7734604105
 20
-706.3316621171
 30
0.0
 11
264.7734604105
 21
-704.3316617893
 31
0.0
  0
LINE
  5
318
330
1F
100
AcDbEntity
  8
0
  6
Continuous
 62
     7
370
    15
100
AcDbLine
 10
214.7733888849
 20
-706.3316621171
 30
0.0
 11
215.773435615
 21
-707.331662281
 31
0.0
  0
LINE
  5
319
330
1F
100
AcDbEntity
  8
0
  6
Continuous
 62
     7
370
    15
100
AcDbLine
 10
263.7734136805
 20
-707.331662281
 30
0.0
 11
264.7734604105
 21
-706.3316621171
 31
0.0
  0
LINE
  5
31A
330
1F
100
AcDbEntity
  8
0
  6
Continuous
 62
     7
370
    15
100
AcDbLine
 10
1389.7734604105
 20
-750.3316618787
 30
0.0
 11
1389.7734604105
 21
-725.3316619718
 31
0.0
  0
LWPOLYLINE
  5
31B
330
1F
100
AcDbEntity
  8
0
  6
Continuous
 62
     7
370
    15
100
AcDbPolyline
 90
       13
 70
   128
 43
0.0
 10
232.2554311976
 20
-750.31255859
 10
232.4926576838
 20
-750.1708895253
 10
233.3492956385
 20
-749.6856443869
 10
234.8524055704
 20
-748.943080409
 10
237.1164283976
 20
-748.1421876984
 10
239.1961536631
 20
-747.8106797026
 10
241.350980781
 20
-747.9180928605
 10
243.2335338816
 20
-748.3777359413
 10
245.0576744303
 20
-749.1086565243
 10
246.5941629633
 20
-749.9051682936
 10
247.2929678187
 20
-750.3132887469
 10
247.3233661875
 20
-750.3316618787
 10
247.3233661875
 20
-750.3316618787
  0
LWPOLYLINE
  5
31C
330
1F
100
AcDbEntity
  8
0
  6
Continuous
 62
     7
370
    15
100
AcDbPolyline
 90
       13
 70
   128
 43
0.0
 10
1252.2552929148
 20
-750.31255859
 10
1252.4927578196
 20
-750.1708895253
 10
1253.3493957743
 20
-749.6856443869
 10
1254.8523864969
 20
-748.943080409
 10
1257.1164093241
 20
-748.1421876984
 10
1259.1961345896
 20
-747.8106797026
 10
1261.3509617075
 20
-747.9180928605
 10
1263.2335148081
 20
-748.3777359413
 10
1265.0576553568
 20
-749.1086565243
 10
1266.5940246805
 20
-749.9051682936
 10
1267.2930679545
 20
-750.3132887469
 10
1267.323347114
 20
-750.3316618787
 10
1267.323347114
 20
-750.3316618787
  0
LWPOLYLINE
  5
31D
330
1F
100
AcDbEntity
  8
0
  6
Continuous
 62
     7
370
    15
100
AcDbPolyline
 90
       13
 70
   128
 43
0.0
 10
-277.7446188703
 20
-750.31255859
 10
-277.5073327795
 20
-750.1708895253
 10
-276.6506948248
 20
-749.6856443869
 10
-275.1475848928
 20
-748.943080409
 10
-272.8835620657
 20
-748.1421876984
 10
-270.8038964048
 20
-747.8106797026
 10
-268.6490692869
 20
-747.9180928605
 10
-266.7665161863
 20
-748.3777359413
 10
-264.9423756376
 20
-749.1086565243
 10
-263.4058871046
 20
-749.9051682936
 10
-262.7070226446
 20
-750.3132887469
 10
-262.6765646711
 20
-750.3316618787
 10
-262.6765646711
 20
-750.3316618787
  0
SPLINE
  5
31E
330
1F
100
AcDbEntity
  8
0
  6
Continuous
 62
     7
370
    15
100
AcDbSpline
210
0.0
220
0.0
230
1.0
 70
     8
 71
     3
 72
    11
 73
     7
 74
     0
 42
0.00000001
 43
0.00000001
 40
0.0
 40
0.0
 40
0.0
 40
0.0
 40
0.2319972353198426
 40
0.4848991721182347
 40
0.7641985638151138
 40
0.9999999999999999
 40
0.9999999999999999
 40
0.9999999999999999
 40
0.9999999999999999
 10
-787.7446242347572
 20
-750.3125585900468
 30
0.0
 10
-787.7047175096135
 20
-750.2873399724853
 30
0.0
 10
-787.6213081622676
 20
-750.2346303496282
 30
0.0
 10
-786.6802824371462
 20
-749.6970717514935
 30
0.0
 10
-785.3378958779801
 20
-748.9651474616417
 30
0.0
 10
-784.048818043914
 20
-748.5401871673124
 30
0.0
 10
-783.4587075486992
 20
-748.3456500159425
 30
0.0
  0
SPLINE
  5
31F
330
1F
100
AcDbEntity
  8
0
  6
Continuous
 62
     7
370
    15
100
AcDbSpline
210
0.0
220
0.0
230
1.0
 70
     8
 71
     3
 72
    15
 73
    11
 74
     0
 42
0.00000001
 43
0.00000001
 40
0.0
 40
0.0
 40
0.0
 40
0.0
 40
0.0272757129752167
 40
0.168362218560312
 40
0.309881268437726
 40
0.4441357740810374
 40
0.5989935777229357
 40
0.7798916628085647
 40
0.9555982730211056
 40
0.9999999999999999
 40
0.9999999999999999
 40
0.9999999999999999
 40
0.9999999999999999
 10
-783.2265921607826
 20
-748.2635371671838
 30
0.0
 10
-783.1138841713088
 20
-748.221894349374
 30
0.0
 10
-782.418182204708
 20
-747.9648496591054
 30
0.0
 10
-780.7929762144922
 20
-747.7427276024815
 30
0.0
 10
-778.6579435757428
 20
-747.8442522158157
 30
0.0
 10
-776.6203237028049
 20
-748.3764883264238
 30
0.0
 10
-774.7634820407214
 20
-749.1587786508113
 30
0.0
 10
-773.2870636946392
 20
-749.961508101635
 30
0.0
 10
-772.7141852375179
 20
-750.3090749125266
 30
0.0
 10
-772.6828966749562
 20
-750.3278703393912
 30
0.0
 10
-772.6765849366997
 20
-750.3316618786973
 30
0.0
  0
LWPOLYLINE
  5
320
330
1F
100
AcDbEntity
  8
0
  6
Continuous
 62
     7
370
    15
100
AcDbPolyline
 90
       13
 70
   128
 43
0.0
 10
742.2554216608
 20
-750.31255859
 10
742.492648147
 20
-750.1708895253
 10
743.3492861017
 20
-749.6856443869
 10
744.8523960337
 20
-748.943080409
 10
747.1164188608
 20
-748.1421876984
 10
749.1961441263
 20
-747.8106797026
 10
751.3509712443
 20
-747.9180928605
 10
753.2335243448
 20
-748.3777359413
 10
755.0576648935
 20
-749.1086565243
 10
756.5941534266
 20
-749.9051682936
 10
757.2929582819
 20
-750.3132887469
 10
757.3233566507
 20
-750.3316618787
 10
757.3233566507
 20
-750.3316618787
  0
LINE
  5
321
330
1F
100
AcDbEntity
  8
0
  6
Continuous
 62
     7
370
    15
100
AcDbLine
 10
-910.2265852709
 20
-750.3316618787
 30
0.0
 11
-910.2265852709
 21
-725.3316619718
 31
0.0
  0
LINE
  5
322
330
1F
100
AcDbEntity
  8
0
  6
Continuous
 62
     7
370
    15
100
AcDbLine
 10
-827.2265844718
 20
-762.4316618131
 30
0.0
 11
-866.2265852764
 21
-762.4316618131
 31
0.0
  0
LINE
  5
323
330
1F
100
AcDbEntity
  8
0
  6
Continuous
 62
     7
370
    15
100
AcDbLine
 10
-827.2265844718
 20
-754.4316605018
 30
0.0
 11
-866.2265852764
 21
-754.4316605018
 31
0.0
  0
LINE
  5
324
330
1F
100
AcDbEntity
  8
0
  6
Continuous
 62
     7
370
    15
100
AcDbLine
 10
1345.7733116373
 20
-754.4316605018
 30
0.0
 11
1305.7733497843
 21
-754.4316605018
 31
0.0
  0
LINE
  5
325
330
1F
100
AcDbEntity
  8
0
  6
Continuous
 62
     7
370
    15
100
AcDbLine
 10
1345.7733116373
 20
-762.4316618131
 30
0.0
 11
1305.7733497843
 21
-762.4316618131
 31
0.0
  0
LINE
  5
326
330
1F
100
AcDbEntity
  8
0
  6
Continuous
 62
     7
370
    15
100
AcDbLine
 10
1341.7733631357
 20
-723.6316620657
 30
0.0
 11
1309.7732982859
 21
-723.6316620657
 31
0.0
  0
LINE
  5
327
330
1F
100
AcDbEntity
  8
0
  6
Continuous
 62
     7
370
    15
100
AcDbLine
 10
1311.5733585581
 20
-721.8316618638
 30
0.0
 11
1339.9733028635
 21
-721.8316618638
 31
0.0
  0
SPLINE
  5
328
330
1F
100
AcDbEntity
  8
0
  6
Continuous
 62
     7
370
    15
100
AcDbSpline
210
0.0
220
0.0
230
1.0
 70
     8
 71
     3
 72
    22
 73
    18
 74
     0
 42
0.00000001
 43
0.00000001
 40
0.0
 40
0.0
 40
0.0
 40
0.0
 40
0.0424483280779212
 40
0.122635537230666
 40
0.208911467294373
 40
0.3120090123383104
 40
0.3621947046056098
 40
0.4135779296166039
 40
0.4821779668831866
 40
0.5511346380674434
 40
0.6347836997076391
 40
0.6944717491926278
 40
0.7558514614161642
 40
0.8161937563698225
 40
0.8787131223837952
 40
0.9629715360649344
 40
1.0
 40
1.0
 40
1.0
 40
1.0
 10
1341.672512076774
 20
-750.3032788919134
 30
0.0
 10
1341.6924795188
 20
-750.3287464813901
 30
0.0
 10
1341.750166548913
 20
-750.4023237377596
 30
0.0
 10
1341.033998685259
 20
-749.4889934200395
 30
0.0
 10
1339.701574749358
 20
-747.7057334190465
 30
0.0
 10
1338.188991392016
 20
-745.4651190211177
 30
0.0
 10
1336.977088452739
 20
-743.2224884828009
 30
0.0
 10
1336.105735536654
 20
-741.1575592656943
 30
0.0
 10
1335.516956011065
 20
-738.5860351881283
 30
0.0
 10
1335.75969436115
 20
-735.4520055877603
 30
0.0
 10
1336.791502255225
 20
-732.7630325103329
 30
0.0
 10
1338.013429152406
 20
-730.5302371231272
 30
0.0
 10
1339.131012400725
 20
-728.7959024381499
 30
0.0
 10
1340.186585398871
 20
-727.3068049869828
 30
0.0
 10
1341.16286579821
 20
-726.0089233545115
 30
0.0
 10
1341.709011726014
 20
-725.313646228507
 30
0.0
 10
1341.75831194846
 20
-725.2508370889514
 30
0.0
 10
1341.773363135734
 20
-725.2316616760415
 30
0.0
  0
SPLINE
  5
329
330
1F
100
AcDbEntity
  8
0
  6
Continuous
 62
     7
370
    15
100
AcDbSpline
210
0.0
220
0.0
230
1.0
 70
     8
 71
     3
 72
    22
 73
    18
 74
     0
 42
0.00000001
 43
0.00000001
 40
0.0
 40
0.0
 40
0.0
 40
0.0
 40
0.0870778369641015
 40
0.1738046182025385
 40
0.2313498169573813
 40
0.2905519581611871
 40
0.3488905767782852
 40
0.4089776490571686
 40
0.4779441001297262
 40
0.5473141010735142
 40
0.6291811185817626
 40
0.6881390203325495
 40
0.7487573113552556
 40
0.8086815340736176
 40
0.8706624331063724
 40
0.9564113610403945
 40
0.9999999999999999
 40
0.9999999999999999
 40
0.9999999999999999
 40
0.9999999999999999
 10
1309.77329828588
 20
-725.2316616760415
 30
0.0
 10
1309.855929246021
 20
-725.3357984534362
 30
0.0
 10
1310.020858038235
 20
-725.5436521791021
 30
0.0
 10
1311.067586477566
 20
-726.9050547135271
 30
0.0
 10
1312.194383262324
 20
-728.4758398915295
 30
0.0
 10
1313.265107364329
 20
-730.0962358315587
 30
0.0
 10
1314.345896654637
 20
-731.9745374402048
 30
0.0
 10
1315.350462724092
 20
-734.2087377118944
 30
0.0
 10
1316.013953867021
 20
-736.8889578426268
 30
0.0
 10
1315.831740382795
 20
-740.0171677228291
 30
0.0
 10
1314.844609435646
 20
-742.7047110590564
 30
0.0
 10
1313.653995043123
 20
-744.9301460890739
 30
0.0
 10
1312.547458482427
 20
-746.6731728600935
 30
0.0
 10
1311.4826356485
 20
-748.1887733937708
 30
0.0
 10
1310.488343947387
 20
-749.5203367447768
 30
0.0
 10
1309.799498599132
 20
-750.3986162545597
 30
0.0
 10
1309.85551082844
 20
-750.3273101014067
 30
0.0
 10
1309.874387763419
 20
-750.3032788919134
 30
0.0
  0
LINE
  5
32A
330
1F
100
AcDbEntity
  8
0
  6
Continuous
 62
     7
370
    15
100
AcDbLine
 10
-830.2265831009
 20
-723.6316620657
 30
0.0
 11
-862.2265846208
 21
-723.6316620657
 31
0.0
  0
LINE
  5
32B
330
1F
100
AcDbEntity
  8
0
  6
Continuous
 62
     7
370
    15
100
AcDbLine
 10
-860.4265839532
 20
-721.8316618638
 30
0.0
 11
-832.0265837684
 21
-721.8316618638
 31
0.0
  0
SPLINE
  5
32C
330
1F
100
AcDbEntity
  8
0
  6
Continuous
 62
     7
370
    15
100
AcDbSpline
210
0.0
220
0.0
230
1.0
 70
     8
 71
     3
 72
    10
 73
     6
 74
     0
 42
0.00000001
 43
0.00000001
 40
0.0
 40
0.0
 40
0.0
 40
0.0
 40
0.2371444569449863
 40
0.6851242926397828
 40
0.9999999999999999
 40
0.9999999999999999
 40
0.9999999999999999
 40
0.9999999999999999
 10
-830.3274863139007
 20
-750.3032788919134
 30
0.0
 10
-830.3084439280959
 20
-750.3271129508554
 30
0.0
 10
-830.2534293548147
 20
-750.3959709498309
 30
0.0
 10
-830.8370523173058
 20
-749.6662317200347
 30
0.0
 10
-831.5401694894173
 20
-748.7031369167532
 30
0.0
 10
-831.8303876295898
 20
-748.3056105958146
 30
0.0
  0
SPLINE
  5
32D
330
1F
100
AcDbEntity
  8
0
  6
Continuous
 62
     7
370
    15
100
AcDbSpline
210
0.0
220
0.0
230
1.0
 70
     8
 71
     3
 72
    10
 73
     6
 74
     0
 42
0.00000001
 43
0.00000001
 40
0.0
 40
0.0
 40
0.0
 40
0.0
 40
0.3258668895889891
 40
0.7941891158210508
 40
1.0
 40
1.0
 40
1.0
 40
1.0
 10
-831.801844455323
 20
-727.3056108789367
 30
0.0
 10
-831.5136009077189
 20
-726.9167314390561
 30
0.0
 10
-830.8111058229877
 20
-725.9689707785319
 30
0.0
 10
-830.2927272068783
 20
-725.3164401339304
 30
0.0
 10
-830.2420536047077
 20
-725.251490585023
 30
0.0
 10
-830.2265831008766
 20
-725.2316616760415
 30
0.0
  0
SPLINE
  5
32E
330
1F
100
AcDbEntity
  8
0
  6
Continuous
 62
     7
370
    15
100
AcDbSpline
210
0.0
220
0.0
230
1.0
 70
     8
 71
     3
 72
    22
 73
    18
 74
     0
 42
0.00000001
 43
0.00000001
 40
0.0
 40
0.0
 40
0.0
 40
0.0
 40
0.087077761569607
 40
0.1738038466755083
 40
0.2313481938797203
 40
0.2905521466967761
 40
0.3488893421791229
 40
0.4089778387618718
 40
0.4779436857960283
 40
0.5473137237998241
 40
0.6291798655174823
 40
0.6881376889931705
 40
0.7487575738484309
 40
0.808681939450235
 40
0.8706630809709309
 40
0.9564113612324086
 40
1.0
 40
1.0
 40
1.0
 40
1.0
 10
-862.226584620795
 20
-725.2316616760415
 30
0.0
 10
-862.1439609674106
 20
-725.3357990651842
 30
0.0
 10
-861.9790473485285
 20
-725.5436532691679
 30
0.0
 10
-860.9323697575186
 20
-726.9050354484281
 30
0.0
 10
-859.8057836110582
 20
-728.475892089592
 30
0.0
 10
-858.7347185218812
 20
-730.0961618369302
 30
0.0
 10
-857.6542585978866
 20
-731.97461139797
 30
0.0
 10
-856.6493361896985
 20
-734.2086750255754
 30
0.0
 10
-855.9861027009283
 20
-736.8889863279907
 30
0.0
 10
-856.1683289359721
 20
-740.017140166549
 30
0.0
 10
-857.1553151181628
 20
-742.7047228659994
 30
0.0
 10
-858.3458958416863
 20
-744.9301784227347
 30
0.0
 10
-859.4526498442907
 20
-746.6731447050564
 30
0.0
 10
-860.5174267401683
 20
-748.1887795876685
 30
0.0
 10
-861.5118307856211
 20
-749.5203258585384
 30
0.0
 10
-862.200425708277
 20
-750.3986181335089
 30
0.0
 10
-862.1445218981889
 20
-750.3273106649793
 30
0.0
 10
-862.1256814077709
 20
-750.3032788919134
 30
0.0
  0
LWPOLYLINE
  5
32F
330
1F
100
AcDbEntity
  8
0
  6
Continuous
 62
     7
370
    15
100
AcDbPolyline
 90
       13
 70
   128
 43
0.0
 10
1267.2456226572
 20
-725.3481976041
 10
1266.9979057535
 20
-725.4949773015
 10
1266.1367378458
 20
-725.978777493
 10
1264.6299324259
 20
-726.7147323401
 10
1262.369724296
 20
-727.5001017662
 10
1260.2997741923
 20
-727.8178178059
 10
1258.1613979563
 20
-727.7025731565
 10
1256.2876663431
 20
-727.2415442677
 10
1254.475685142
 20
-726.5150688873
 10
1252.9669723734
 20
-725.735008
 10
1252.298208259
 20
-725.346506788
 10
1252.2734127268
 20
-725.3316619718
 10
1252.2734127268
 20
-725.3316619718
  0
LWPOLYLINE
  5
330
330
1F
100
AcDbEntity
  8
0
  6
Continuous
 62
     7
370
    15
100
AcDbPolyline
 90
       13
 70
   128
 43
0.0
 10
-262.7544679418
 20
-725.3481976041
 10
-263.0020656362
 20
-725.4949773015
 10
-263.8633527532
 20
-725.978777493
 10
-265.3700389639
 20
-726.7147323401
 10
-267.6301874891
 20
-727.5001017662
 10
-269.7001971975
 20
-727.8178178059
 10
-271.8385734335
 20
-727.7025731565
 10
-273.7123646513
 20
-727.2415442677
 10
-275.5242266432
 20
-726.5150688873
 10
-277.0331182257
 20
-725.735008
 10
-277.7018227354
 20
-725.346506788
 10
-277.726558663
 20
-725.3316619718
 10
-277.726558663
 20
-725.3316619718
  0
LWPOLYLINE
  5
331
330
1F
100
AcDbEntity
  8
0
  6
Continuous
 62
     7
370
    15
100
AcDbPolyline
 90
       13
 70
   128
 43
0.0
 10
247.2433767542
 20
-725.3495228762
 10
247.0029316172
 20
-725.4949773015
 10
246.1464128718
 20
-725.978777493
 10
244.6440181955
 20
-726.7147323401
 10
242.3871479258
 20
-727.5001017662
 10
240.3182707056
 20
-727.8178178059
 10
238.1795368418
 20
-727.7025731565
 10
236.3040170893
 20
-727.2415442677
 10
234.4888172373
 20
-726.5150688873
 10
232.9746208414
 20
-725.735008
 10
232.299657844
 20
-725.346506788
 10
232.2734318003
 20
-725.3316619718
 10
232.2734318003
 20
-725.3316619718
  0
LWPOLYLINE
  5
332
330
1F
100
AcDbEntity
  8
0
  6
Continuous
 62
     7
370
    15
100
AcDbPolyline
 90
       13
 70
   128
 43
0.0
 10
757.2455129847
 20
-725.3481976041
 10
756.9979152903
 20
-725.4949773015
 10
756.1366281733
 20
-725.978777493
 10
754.6299419626
 20
-726.7147323401
 10
752.3697338328
 20
-727.5001017662
 10
750.299783729
 20
-727.8178178059
 10
748.161407493
 20
-727.7025731565
 10
746.2876758799
 20
-727.2415442677
 10
744.4756946787
 20
-726.5150688873
 10
742.9668627009
 20
-725.735008
 10
742.2982177958
 20
-725.346506788
 10
742.2734222635
 20
-725.3316619718
 10
742.2734222635
 20
-725.3316619718
  0
SPLINE
  5
333
330
1F
100
AcDbEntity
  8
0
  6
Continuous
 62
     7
370
    15
100
AcDbSpline
210
0.0
220
0.0
230
1.0
 70
     8
 71
     3
 72
    14
 73
    10
 74
     0
 42
0.00000001
 43
0.00000001
 40
0.0
 40
0.0
 40
0.0
 40
0.0
 40
0.1341811349410295
 40
0.2784527083116963
 40
0.4378221894076909
 40
0.6177869262443828
 40
0.7587634608627669
 40
0.9001421176368419
 40
0.9999999999999999
 40
0.9999999999999999
 40
0.9999999999999999
 40
0.9999999999999999
 10
-772.7544435039375
 20
-725.3481976041419
 30
0.0
 10
-772.7977291094592
 20
-725.3746273060923
 30
0.0
 10
-772.8875554035482
 20
-725.4294742269441
 30
0.0
 10
-773.8261419592376
 20
-725.972705185133
 30
0.0
 10
-775.353669493684
 20
-726.7477401050315
 30
0.0
 10
-777.3932227091437
 20
-727.517484999531
 30
0.0
 10
-779.6836207159337
 20
-727.8925055127702
 30
0.0
 10
-781.6780977261373
 20
-727.7987553576236
 30
0.0
 10
-782.7732591088534
 20
-727.4892004611457
 30
0.0
 10
-783.2265921607826
 20
-727.3610627563519
 30
0.0
  0
SPLINE
  5
334
330
1F
100
AcDbEntity
  8
0
  6
Continuous
 62
     7
370
    15
100
AcDbSpline
210
0.0
220
0.0
230
1.0
 70
     8
 71
     3
 72
    12
 73
     8
 74
     0
 42
0.00000001
 43
0.00000001
 40
0.0
 40
0.0
 40
0.0
 40
0.0
 40
0.0383388761213593
 40
0.3096579525861297
 40
0.6250743344160644
 40
0.9299979209866321
 40
1.0
 40
1.0
 40
1.0
 40
1.0
 10
-783.406732298455
 20
-727.3167411150259
 30
0.0
 10
-783.5094504856104
 20
-727.2923091329294
 30
0.0
 10
-784.3390914857072
 20
-727.0949752953462
 30
0.0
 10
-785.6804095689911
 20
-726.4463184965873
 30
0.0
 10
-787.1564468670342
 20
-725.6844029446352
 30
0.0
 10
-787.6936109175692
 20
-725.3509365186411
 30
0.0
 10
-787.7213982314073
 20
-725.3346945054607
 30
0.0
 10
-787.7265863791321
 20
-725.3316619718296
 30
0.0
  0
LINE
  5
335
330
1F
100
AcDbEntity
  8
0
  6
Continuous
 62
     7
370
    15
100
AcDbLine
 10
-910.4265853968
 20
-750.3316618787
 30
0.0
 11
-910.4265853968
 21
-725.3324414888
 31
0.0
  0
LINE
  5
336
330
1F
100
AcDbEntity
  8
0
  6
Continuous
 62
     7
370
    15
100
AcDbLine
 10
-912.0265853709
 20
-725.3324414888
 30
0.0
 11
-912.0265853709
 21
-750.3316618787
 31
0.0
  0
LINE
  5
337
330
1F
100
AcDbEntity
  8
0
  6
Continuous
 62
     7
370
    15
100
AcDbLine
 10
-912.2265853659
 20
-750.1316622184
 30
0.0
 11
-912.2265853659
 21
-725.5324290419
 31
0.0
  0
LINE
  5
338
330
1F
100
AcDbEntity
  8
0
  6
Continuous
 62
     7
370
    15
100
AcDbLine
 10
1391.5735206827
 20
-750.3312409209
 30
0.0
 11
1391.5735206827
 21
-725.3316619718
 31
0.0
  0
LINE
  5
339
330
1F
100
AcDbEntity
  8
0
  6
Continuous
 62
     7
370
    15
100
AcDbLine
 10
1389.9734935984
 20
-725.3316619718
 30
0.0
 11
1389.9734935984
 21
-750.3312409209
 31
0.0
  0
LINE
  5
33A
330
1F
100
AcDbEntity
  8
0
  6
Continuous
 62
     7
370
    15
100
AcDbLine
 10
1391.773315452
 20
-725.5316616321
 30
0.0
 11
1391.773315452
 21
-750.1312487112
 31
0.0
  0
LINE
  5
33B
330
1F
100
AcDbEntity
  8
0
  6
Continuous
 62
     7
370
    15
100
AcDbLine
 10
-97.22658775
 20
-755.0056122528
 30
0.0
 11
-127.2265591398
 21
-755.0056122528
 31
0.0
  0
LINE
  5
33C
330
1F
100
AcDbEntity
  8
0
  6
Continuous
 62
     7
370
    15
100
AcDbLine
 10
-127.0265855566
 20
-754.8056088673
 30
0.0
 11
-97.4265613333
 21
-754.8056088673
 31
0.0
  0
LINE
  5
33D
330
1F
100
AcDbEntity
  8
0
  6
Continuous
 62
     7
370
    15
100
AcDbLine
 10
-127.2265591398
 20
-758.6056098627
 30
0.0
 11
-97.22658775
 21
-758.6056098627
 31
0.0
  0
LINE
  5
33E
330
1F
100
AcDbEntity
  8
0
  6
Continuous
 62
     7
370
    15
100
AcDbLine
 10
-827.2265844718
 20
-758.6056098627
 30
0.0
 11
-797.2265832797
 21
-758.6056098627
 31
0.0
  0
LINE
  5
33F
330
1F
100
AcDbEntity
  8
0
  6
Continuous
 62
     7
370
    15
100
AcDbLine
 10
-797.2265832797
 20
-755.0056122528
 30
0.0
 11
-827.2265844718
 21
-755.0056122528
 31
0.0
  0
LINE
  5
340
330
1F
100
AcDbEntity
  8
0
  6
Continuous
 62
     7
370
    15
100
AcDbLine
 10
-827.0265885368
 20
-754.8056088673
 30
0.0
 11
-797.4265866652
 21
-754.8056088673
 31
0.0
  0
LINE
  5
341
330
1F
100
AcDbEntity
  8
0
  6
Continuous
 62
     7
370
    15
100
AcDbLine
 10
-125.1437344328
 20
-714.805610227
 30
0.0
 11
-99.3094124571
 21
-714.805610227
 31
0.0
  0
LINE
  5
342
330
1F
100
AcDbEntity
  8
0
  6
Continuous
 62
     7
370
    15
100
AcDbLine
 10
-825.1437448636
 20
-714.805610227
 30
0.0
 11
-799.3094303385
 21
-714.805610227
 31
0.0
  0
LINE
  5
343
330
1F
100
AcDbEntity
  8
0
  6
Continuous
 62
     7
370
    15
100
AcDbLine
 10
-833.3094247356
 20
-766.4316624688
 30
0.0
 11
-859.143742986
 21
-766.4316624688
 31
0.0
  0
LINE
  5
344
330
1F
100
AcDbEntity
  8
0
  6
Continuous
 62
     7
370
    15
100
AcDbLine
 10
1338.690610908
 20
-766.4316624688
 30
0.0
 11
1312.8562889322
 21
-766.4316624688
 31
0.0
  0
LINE
  5
345
330
1F
100
AcDbEntity
  8
0
  6
Continuous
 62
     7
370
    15
100
AcDbLine
 10
-827.2265844718
 20
-764.8056105064
 30
0.0
 11
-797.2265832797
 21
-764.8056105064
 31
0.0
  0
LINE
  5
346
330
1F
100
AcDbEntity
  8
0
  6
Continuous
 62
     7
370
    15
100
AcDbLine
 10
-827.2265844718
 20
-767.8056091355
 30
0.0
 11
-797.2265832797
 21
-767.8056091355
 31
0.0
  0
LINE
  5
347
330
1F
100
AcDbEntity
  8
0
  6
Continuous
 62
     7
370
    15
100
AcDbLine
 10
-799.2265873328
 20
-769.8056094633
 30
0.0
 11
-825.2265878692
 21
-769.8056094633
 31
0.0
  0
LINE
  5
348
330
1F
100
AcDbEntity
  8
0
  6
Continuous
 62
     7
370
    15
100
AcDbLine
 10
-127.2265591398
 20
-764.8056105064
 30
0.0
 11
-97.22658775
 21
-764.8056105064
 31
0.0
  0
LINE
  5
349
330
1F
100
AcDbEntity
  8
0
  6
Continuous
 62
     7
370
    15
100
AcDbLine
 10
-127.2265591398
 20
-767.8056091355
 30
0.0
 11
-97.22658775
 21
-767.8056091355
 31
0.0
  0
LINE
  5
34A
330
1F
100
AcDbEntity
  8
0
  6
Continuous
 62
     7
370
    15
100
AcDbLine
 10
-99.2265620008
 20
-769.8056094633
 30
0.0
 11
-125.226584889
 21
-769.8056094633
 31
0.0
  0
LINE
  5
34B
330
1F
100
AcDbEntity
  8
0
  6
Continuous
 62
     7
370
    15
100
AcDbLine
 10
-98.2348599211
 20
-726.805610797
 30
0.0
 11
-127.0265855566
 21
-726.805610797
 31
0.0
  0
LINE
  5
34C
330
1F
100
AcDbEntity
  8
0
  6
Continuous
 62
     7
370
    15
100
AcDbLine
 10
-97.4265613333
 20
-726.805610797
 30
0.0
 11
-98.2348599211
 21
-726.805610797
 31
0.0
  0
LINE
  5
34D
330
1F
100
AcDbEntity
  8
0
  6
Continuous
 62
     7
370
    15
100
AcDbLine
 10
-100.0148930326
 20
-723.8056103052
 30
0.0
 11
-99.3094124571
 21
-723.8056103052
 31
0.0
  0
LINE
  5
34E
330
1F
100
AcDbEntity
  8
0
  6
Continuous
 62
     7
370
    15
100
AcDbLine
 10
-125.1437344328
 20
-723.8056103052
 30
0.0
 11
-100.0148930326
 21
-723.8056103052
 31
0.0
  0
LINE
  5
34F
330
1F
100
AcDbEntity
  8
0
  6
Continuous
 62
     7
370
    15
100
AcDbLine
 10
-798.234885253
 20
-726.805610797
 30
0.0
 11
-827.0265885368
 21
-726.805610797
 31
0.0
  0
LINE
  5
350
330
1F
100
AcDbEntity
  8
0
  6
Continuous
 62
     7
370
    15
100
AcDbLine
 10
-797.4265866652
 20
-726.805610797
 30
0.0
 11
-798.234885253
 21
-726.805610797
 31
0.0
  0
LINE
  5
351
330
1F
100
AcDbEntity
  8
0
  6
Continuous
 62
     7
370
    15
100
AcDbLine
 10
-800.0148960129
 20
-723.8056103052
 30
0.0
 11
-799.3094303385
 21
-723.8056103052
 31
0.0
  0
LINE
  5
352
330
1F
100
AcDbEntity
  8
0
  6
Continuous
 62
     7
370
    15
100
AcDbLine
 10
-825.1437448636
 20
-723.8056103052
 30
0.0
 11
-800.0148960129
 21
-723.8056103052
 31
0.0
  0
LINE
  5
353
330
1F
100
AcDbEntity
  8
0
  6
Continuous
 62
     7
370
    15
100
AcDbLine
 10
-811.8920379058
 20
-728.8056101935
 30
0.0
 11
-841.2265830413
 21
-728.8056101935
 31
0.0
  0
LINE
  5
354
330
1F
100
AcDbEntity
  8
0
  6
Continuous
 62
     7
370
    15
100
AcDbLine
 10
-783.2265921608
 20
-728.8056101935
 30
0.0
 11
-811.8920379058
 21
-728.8056101935
 31
0.0
  0
LINE
  5
355
330
1F
100
AcDbEntity
  8
0
  6
Continuous
 62
     7
370
    15
100
AcDbLine
 10
-811.8920379058
 20
-727.3056108789
 30
0.0
 11
-841.2265830413
 21
-727.3056108789
 31
0.0
  0
LINE
  5
356
330
1F
100
AcDbEntity
  8
0
  6
Continuous
 62
     7
370
    15
100
AcDbLine
 10
-783.2265921608
 20
-727.3056108789
 30
0.0
 11
-811.8920379058
 21
-727.3056108789
 31
0.0
  0
LINE
  5
357
330
1F
100
AcDbEntity
  8
0
  6
Continuous
 62
     7
370
    15
100
AcDbLine
 10
-141.2265577093
 20
-746.8056112813
 30
0.0
 11
-83.2265891806
 21
-746.8056112813
 31
0.0
  0
LINE
  5
358
330
1F
100
AcDbEntity
  8
0
  6
Continuous
 62
     7
370
    15
100
AcDbLine
 10
-141.2265577093
 20
-748.3056105958
 30
0.0
 11
-83.2265891806
 21
-748.3056105958
 31
0.0
  0
LINE
  5
359
330
1F
100
AcDbEntity
  8
0
  6
Continuous
 62
     7
370
    15
100
AcDbLine
 10
-111.8920125738
 20
-728.8056101935
 30
0.0
 11
-141.2265577093
 21
-728.8056101935
 31
0.0
  0
LINE
  5
35A
330
1F
100
AcDbEntity
  8
0
  6
Continuous
 62
     7
370
    15
100
AcDbLine
 10
-83.2265891806
 20
-728.8056101935
 30
0.0
 11
-111.8920125738
 21
-728.8056101935
 31
0.0
  0
LINE
  5
35B
330
1F
100
AcDbEntity
  8
0
  6
Continuous
 62
     7
370
    15
100
AcDbLine
 10
-111.8920125738
 20
-727.3056108789
 30
0.0
 11
-141.2265577093
 21
-727.3056108789
 31
0.0
  0
LINE
  5
35C
330
1F
100
AcDbEntity
  8
0
  6
Continuous
 62
     7
370
    15
100
AcDbLine
 10
-83.2265891806
 20
-727.3056108789
 30
0.0
 11
-111.8920125738
 21
-727.3056108789
 31
0.0
  0
LINE
  5
35D
330
1F
100
AcDbEntity
  8
0
  6
Continuous
 62
     7
370
    15
100
AcDbLine
 10
-841.2265830413
 20
-748.3056105958
 30
0.0
 11
-783.2265921608
 21
-748.3056105958
 31
0.0
  0
LINE
  5
35E
330
1F
100
AcDbEntity
  8
0
  6
Continuous
 62
     7
370
    15
100
AcDbLine
 10
-841.2265830413
 20
-746.8056112813
 30
0.0
 11
-783.2265921608
 21
-746.8056112813
 31
0.0
  0
LINE
  5
35F
330
1F
100
AcDbEntity
  8
0
  6
Continuous
 62
     7
370
    15
100
AcDbLine
 10
-83.2265891806
 20
-745.8372853981
 30
0.0
 11
-141.2265577093
 21
-745.8372853981
 31
0.0
  0
LINE
  5
360
330
1F
100
AcDbEntity
  8
0
  6
Continuous
 62
     7
370
    15
100
AcDbLine
 10
-124.1206207052
 20
-729.8260389181
 30
0.0
 11
-83.2265891806
 21
-729.8260389181
 31
0.0
  0
LINE
  5
361
330
1F
100
AcDbEntity
  8
0
  6
Continuous
 62
     7
370
    15
100
AcDbLine
 10
-141.2265577093
 20
-729.8260389181
 30
0.0
 11
-124.1206207052
 21
-729.8260389181
 31
0.0
  0
LINE
  5
362
330
1F
100
AcDbEntity
  8
0
  6
Continuous
 62
     7
370
    15
100
AcDbLine
 10
-141.2265577093
 20
-728.8056101935
 30
0.0
 11
-83.2265891806
 21
-728.8056101935
 31
0.0
  0
LINE
  5
363
330
1F
100
AcDbEntity
  8
0
  6
Continuous
 62
     7
370
    15
100
AcDbLine
 10
-783.2265921608
 20
-745.8372853981
 30
0.0
 11
-841.2265830413
 21
-745.8372853981
 31
0.0
  0
LINE
  5
364
330
1F
100
AcDbEntity
  8
0
  6
Continuous
 62
     7
370
    15
100
AcDbLine
 10
-824.1206013337
 20
-729.8260389181
 30
0.0
 11
-783.2265921608
 21
-729.8260389181
 31
0.0
  0
LINE
  5
365
330
1F
100
AcDbEntity
  8
0
  6
Continuous
 62
     7
370
    15
100
AcDbLine
 10
-841.2265830413
 20
-729.8260389181
 30
0.0
 11
-824.1206013337
 21
-729.8260389181
 31
0.0
  0
LINE
  5
366
330
1F
100
AcDbEntity
  8
0
  6
Continuous
 62
     7
370
    15
100
AcDbLine
 10
-841.2265830413
 20
-728.8056101935
 30
0.0
 11
-783.2265921608
 21
-728.8056101935
 31
0.0
  0
LINE
  5
367
330
1F
100
AcDbEntity
  8
0
  6
Continuous
 62
     7
370
    15
100
AcDbLine
 10
-127.2265591398
 20
-758.8056095229
 30
0.0
 11
-127.2265591398
 21
-764.8056105064
 31
0.0
  0
LINE
  5
368
330
1F
100
AcDbEntity
  8
0
  6
Continuous
 62
     7
370
    15
100
AcDbLine
 10
-127.2265591398
 20
-758.8056095229
 30
0.0
 11
-97.22658775
 21
-758.8056095229
 31
0.0
  0
LINE
  5
369
330
1F
100
AcDbEntity
  8
0
  6
Continuous
 62
     7
370
    15
100
AcDbLine
 10
-97.22658775
 20
-758.8056095229
 30
0.0
 11
-97.22658775
 21
-764.8056105064
 31
0.0
  0
LINE
  5
36A
330
1F
100
AcDbEntity
  8
0
  6
Continuous
 62
     7
370
    15
100
AcDbLine
 10
-827.2265844718
 20
-758.8056095229
 30
0.0
 11
-827.2265844718
 21
-764.8056105064
 31
0.0
  0
LINE
  5
36B
330
1F
100
AcDbEntity
  8
0
  6
Continuous
 62
     7
370
    15
100
AcDbLine
 10
-797.2265832797
 20
-758.8056095229
 30
0.0
 11
-797.2265832797
 21
-764.8056105064
 31
0.0
  0
LINE
  5
36C
330
1F
100
AcDbEntity
  8
0
  6
Continuous
 62
     7
370
    15
100
AcDbLine
 10
-827.2265844718
 20
-758.8056095229
 30
0.0
 11
-797.2265832797
 21
-758.8056095229
 31
0.0
  0
LINE
  5
36D
330
1F
100
AcDbEntity
  8
0
  6
Continuous
 62
     7
370
    15
100
AcDbLine
 10
-826.926586844
 20
-748.8056097464
 30
0.0
 11
-797.526588358
 21
-748.8056097464
 31
0.0
  0
LINE
  5
36E
330
1F
100
AcDbEntity
  8
0
  6
Continuous
 62
     7
370
    15
100
AcDbLine
 10
-797.2265832797
 20
-749.1056110995
 30
0.0
 11
-827.2265844718
 21
-749.1056110995
 31
0.0
  0
LINE
  5
36F
330
1F
100
AcDbEntity
  8
0
  6
Continuous
 62
     7
370
    15
100
AcDbLine
 10
-827.2265844718
 20
-754.5056112395
 30
0.0
 11
-797.2265832797
 21
-754.5056112395
 31
0.0
  0
LINE
  5
370
330
1F
100
AcDbEntity
  8
0
  6
Continuous
 62
     7
370
    15
100
AcDbLine
 10
-126.9265689627
 20
-748.8056097464
 30
0.0
 11
-97.5265779272
 21
-748.8056097464
 31
0.0
  0
LINE
  5
371
330
1F
100
AcDbEntity
  8
0
  6
Continuous
 62
     7
370
    15
100
AcDbLine
 10
-97.22658775
 20
-749.1056110995
 30
0.0
 11
-127.2265591398
 21
-749.1056110995
 31
0.0
  0
LINE
  5
372
330
1F
100
AcDbEntity
  8
0
  6
Continuous
 62
     7
370
    15
100
AcDbLine
 10
-127.2265591398
 20
-754.5056112395
 30
0.0
 11
-97.22658775
 21
-754.5056112395
 31
0.0
  0
LINE
  5
373
330
1F
100
AcDbEntity
  8
0
  6
Continuous
 62
     7
370
    15
100
AcDbLine
 10
-12.2266092077
 20
-758.8056095229
 30
0.0
 11
-12.2266092077
 21
-750.3316618787
 31
0.0
  0
LINE
  5
374
330
1F
100
AcDbEntity
  8
0
  6
Continuous
 62
     7
370
    15
100
AcDbLine
 10
-12.2266092077
 20
-725.3316619718
 30
0.0
 11
-12.2266092077
 21
-718.805610417
 31
0.0
  0
LINE
  5
375
330
1F
100
AcDbEntity
  8
0
  6
Continuous
 62
     7
370
    15
100
AcDbLine
 10
-12.2266092077
 20
-758.8056095229
 30
0.0
 11
-97.22658775
 21
-758.8056095229
 31
0.0
  0
LINE
  5
376
330
1F
100
AcDbEntity
  8
0
  6
Continuous
 62
     7
370
    15
100
AcDbLine
 10
-127.2265591398
 20
-758.8056095229
 30
0.0
 11
-797.2265832797
 21
-758.8056095229
 31
0.0
  0
LINE
  5
377
330
1F
100
AcDbEntity
  8
0
  6
Continuous
 62
     7
370
    15
100
AcDbLine
 10
-866.2265852764
 20
-758.8056095229
 30
0.0
 11
-912.2265853659
 21
-758.8056095229
 31
0.0
  0
LINE
  5
378
330
1F
100
AcDbEntity
  8
0
  6
Continuous
 62
     7
370
    15
100
AcDbLine
 10
-912.2265853659
 20
-758.8056095229
 30
0.0
 11
-912.2265853659
 21
-750.1316622184
 31
0.0
  0
LINE
  5
379
330
1F
100
AcDbEntity
  8
0
  6
Continuous
 62
     7
370
    15
100
AcDbLine
 10
-912.2265853659
 20
-725.5316616321
 30
0.0
 11
-912.2265853659
 21
-718.805610417
 31
0.0
  0
LINE
  5
37A
330
1F
100
AcDbEntity
  8
0
  6
Continuous
 62
     7
370
    15
100
AcDbLine
 10
-12.2266092077
 20
-718.805610417
 30
0.0
 11
-262.7265729681
 21
-718.805610417
 31
0.0
  0
LINE
  5
37B
330
1F
100
AcDbEntity
  8
0
  6
Continuous
 62
     7
370
    15
100
AcDbLine
 10
-277.726558663
 20
-718.805610417
 30
0.0
 11
-772.7265783325
 21
-718.805610417
 31
0.0
  0
LINE
  5
37C
330
1F
100
AcDbEntity
  8
0
  6
Continuous
 62
     7
370
    15
100
AcDbLine
 10
-787.7265863791
 20
-718.805610417
 30
0.0
 11
-912.2265853659
 21
-718.805610417
 31
0.0
  0
LINE
  5
37D
330
1F
100
AcDbEntity
  8
0
  6
Continuous
 62
     7
370
    15
100
AcDbLine
 10
-277.6766099707
 20
-751.0193616437
 30
0.0
 11
-262.7765812651
 21
-751.0193616437
 31
0.0
  0
LINE
  5
37E
330
1F
100
AcDbEntity
  8
0
  6
Continuous
 62
     7
370
    15
100
AcDbLine
 10
-263.7766279951
 20
-752.0193636702
 30
0.0
 11
-276.6765632406
 21
-752.0193636702
 31
0.0
  0
LINE
  5
37F
330
1F
100
AcDbEntity
  8
0
  6
Continuous
 62
     7
370
    15
100
AcDbLine
 10
232.3233804926
 20
-751.0193616437
 30
0.0
 11
247.2234688028
 21
-751.0193616437
 31
0.0
  0
LINE
  5
380
330
1F
100
AcDbEntity
  8
0
  6
Continuous
 62
     7
370
    15
100
AcDbLine
 10
246.2234220728
 20
-752.0193636702
 30
0.0
 11
233.3234272226
 21
-752.0193636702
 31
0.0
  0
LINE
  5
381
330
1F
100
AcDbEntity
  8
0
  6
Continuous
 62
     7
370
    15
100
AcDbLine
 10
742.3233709559
 20
-751.0193616437
 30
0.0
 11
757.2233400568
 21
-751.0193616437
 31
0.0
  0
LINE
  5
382
330
1F
100
AcDbEntity
  8
0
  6
Continuous
 62
     7
370
    15
100
AcDbLine
 10
756.2234125361
 20
-752.0193636702
 30
0.0
 11
743.3234176859
 21
-752.0193636702
 31
0.0
  0
LINE
  5
383
330
1F
100
AcDbEntity
  8
0
  6
Continuous
 62
     7
370
    15
100
AcDbLine
 10
-787.6765855327
 20
-751.0193616437
 30
0.0
 11
-772.7766015306
 21
-751.0193616437
 31
0.0
  0
LINE
  5
384
330
1F
100
AcDbEntity
  8
0
  6
Continuous
 62
     7
370
    15
100
AcDbLine
 10
-773.7766035572
 20
-752.0193636702
 30
0.0
 11
-786.6765835062
 21
-752.0193636702
 31
0.0
  0
LINE
  5
385
330
1F
100
AcDbEntity
  8
0
  6
Continuous
 62
     7
370
    15
100
AcDbLine
 10
1252.3234806284
 20
-751.0193616437
 30
0.0
 11
1267.2234497294
 21
-751.0193616437
 31
0.0
  0
LINE
  5
386
330
1F
100
AcDbEntity
  8
0
  6
Continuous
 62
     7
370
    15
100
AcDbLine
 10
1266.22328379
 20
-752.0193636702
 30
0.0
 11
1253.3234081492
 21
-752.0193636702
 31
0.0
  0
LINE
  5
387
330
1F
100
AcDbEntity
  8
0
  6
Continuous
 62
     7
370
    15
100
AcDbLine
 10
-805.226584591
 20
-706.3316621171
 30
0.0
 11
-755.2266546265
 21
-706.3316621171
 31
0.0
  0
LINE
  5
388
330
1F
100
AcDbEntity
  8
0
  6
Continuous
 62
     7
370
    15
100
AcDbLine
 10
-755.2266546265
 20
-704.3316617893
 30
0.0
 11
-805.226584591
 21
-704.3316617893
 31
0.0
  0
LINE
  5
389
330
1F
100
AcDbEntity
  8
0
  6
Continuous
 62
     7
370
    15
100
AcDbLine
 10
-756.226656653
 20
-707.331662281
 30
0.0
 11
-804.2265825644
 21
-707.331662281
 31
0.0
  0
LINE
  5
38A
330
1F
100
AcDbEntity
  8
0
  6
Continuous
 62
     7
370
    15
100
AcDbLine
 10
-295.2266015783
 20
-706.3316621171
 30
0.0
 11
-245.226649262
 21
-706.3316621171
 31
0.0
  0
LINE
  5
38B
330
1F
100
AcDbEntity
  8
0
  6
Continuous
 62
     7
370
    15
100
AcDbLine
 10
-245.226649262
 20
-704.3316617893
 30
0.0
 11
-295.2266015783
 21
-704.3316617893
 31
0.0
  0
LINE
  5
38C
330
1F
100
AcDbEntity
  8
0
  6
Continuous
 62
     7
370
    15
100
AcDbLine
 10
-246.2266363874
 20
-707.331662281
 30
0.0
 11
-294.2266144529
 21
-707.331662281
 31
0.0
  0
LINE
  5
38D
330
1F
100
AcDbEntity
  8
0
  6
Continuous
 62
     7
370
    15
100
AcDbLine
 10
724.7733793482
 20
-706.3316621171
 30
0.0
 11
774.7733316645
 21
-706.3316621171
 31
0.0
  0
LINE
  5
38E
330
1F
100
AcDbEntity
  8
0
  6
Continuous
 62
     7
370
    15
100
AcDbLine
 10
774.7733316645
 20
-704.3316617893
 30
0.0
 11
724.7733793482
 21
-704.3316617893
 31
0.0
  0
LINE
  5
38F
330
1F
100
AcDbEntity
  8
0
  6
Continuous
 62
     7
370
    15
100
AcDbLine
 10
773.7732849344
 20
-707.331662281
 30
0.0
 11
725.7734260782
 21
-707.331662281
 31
0.0
  0
LINE
  5
390
330
1F
100
AcDbEntity
  8
0
  6
Continuous
 62
     7
370
    15
100
AcDbLine
 10
1284.773441337
 20
-704.3316617893
 30
0.0
 11
1234.7734890207
 21
-704.3316617893
 31
0.0
  0
LINE
  5
391
330
1F
100
AcDbEntity
  8
0
  6
Continuous
 62
     7
370
    15
100
AcDbLine
 10
1234.7734890207
 20
-706.3316621171
 30
0.0
 11
1284.773441337
 21
-706.3316621171
 31
0.0
  0
LINE
  5
392
330
1F
100
AcDbEntity
  8
0
  6
Continuous
 62
     7
370
    15
100
AcDbLine
 10
1283.7732753977
 20
-707.331662281
 30
0.0
 11
1235.7734165415
 21
-707.331662281
 31
0.0
  0
LINE
  5
393
330
1F
100
AcDbEntity
  8
0
  6
Continuous
 62
     7
370
    15
100
AcDbLine
 10
214.7733888849
 20
-706.3316621171
 30
0.0
 11
264.7734604105
 21
-706.3316621171
 31
0.0
  0
LINE
  5
394
330
1F
100
AcDbEntity
  8
0
  6
Continuous
 62
     7
370
    15
100
AcDbLine
 10
264.7734604105
 20
-704.3316617893
 30
0.0
 11
214.7733888849
 21
-704.3316617893
 31
0.0
  0
LINE
  5
395
330
1F
100
AcDbEntity
  8
0
  6
Continuous
 62
     7
370
    15
100
AcDbLine
 10
263.7734136805
 20
-707.331662281
 30
0.0
 11
215.773435615
 21
-707.331662281
 31
0.0
  0
LINE
  5
396
330
1F
100
AcDbEntity
  8
0
  6
Continuous
 62
     8
370
    15
100
AcDbLine
 10
-119.6514644399
 20
-716.8884530948
 30
0.0
 11
-127.2265591398
 21
-716.8884530948
 31
0.0
  0
LINE
  5
397
330
1F
100
AcDbEntity
  8
0
  6
Continuous
 62
     8
370
    15
100
AcDbLine
 10
-97.22658775
 20
-716.8884530948
 30
0.0
 11
-119.6514644399
 21
-716.8884530948
 31
0.0
  0
LINE
  5
398
330
1F
100
AcDbEntity
  8
0
  6
Continuous
 62
     8
370
    15
100
AcDbLine
 10
-127.2265591398
 20
-718.6056104221
 30
0.0
 11
-97.22658775
 21
-718.6056104221
 31
0.0
  0
LINE
  5
399
330
1F
100
AcDbEntity
  8
0
  6
Continuous
 62
     8
370
    15
100
AcDbLine
 10
-127.1680273786
 20
-716.7470317619
 30
0.0
 11
-97.2851791159
 21
-716.7470317619
 31
0.0
  0
LINE
  5
39A
330
1F
100
AcDbEntity
  8
0
  6
Continuous
 62
     8
370
    15
100
AcDbLine
 10
-99.1680302397
 20
-714.86418902
 30
0.0
 11
-125.2851762548
 21
-714.86418902
 31
0.0
  0
LINE
  5
39B
330
1F
100
AcDbEntity
  8
0
  6
Continuous
 62
     8
370
    15
100
AcDbLine
 10
-819.6514823213
 20
-716.8884530948
 30
0.0
 11
-827.2265844718
 21
-716.8884530948
 31
0.0
  0
LINE
  5
39C
330
1F
100
AcDbEntity
  8
0
  6
Continuous
 62
     8
370
    15
100
AcDbLine
 10
-797.2265832797
 20
-716.8884530948
 30
0.0
 11
-819.6514823213
 21
-716.8884530948
 31
0.0
  0
LINE
  5
39D
330
1F
100
AcDbEntity
  8
0
  6
Continuous
 62
     8
370
    15
100
AcDbLine
 10
-827.2265844718
 20
-718.6056104221
 30
0.0
 11
-797.2265832797
 21
-718.6056104221
 31
0.0
  0
LINE
  5
39E
330
1F
100
AcDbEntity
  8
0
  6
Continuous
 62
     8
370
    15
100
AcDbLine
 10
-827.1680080071
 20
-716.7470317619
 30
0.0
 11
-797.2851671949
 21
-716.7470317619
 31
0.0
  0
LINE
  5
39F
330
1F
100
AcDbEntity
  8
0
  6
Continuous
 62
     8
370
    15
100
AcDbLine
 10
-799.1680034176
 20
-714.86418902
 30
0.0
 11
-825.2851643339
 21
-714.86418902
 31
0.0
  0
LINE
  5
3A0
330
1F
100
AcDbEntity
  8
0
  6
Continuous
 62
     8
370
    15
100
AcDbLine
 10
-832.3706664816
 20
-764.3488191353
 30
0.0
 11
-831.2265851274
 21
-764.3488191353
 31
0.0
  0
LINE
  5
3A1
330
1F
100
AcDbEntity
  8
0
  6
Continuous
 62
     8
370
    15
100
AcDbLine
 10
-861.2265863195
 20
-764.3488191353
 30
0.0
 11
-832.3706664816
 21
-764.3488191353
 31
0.0
  0
LINE
  5
3A2
330
1F
100
AcDbEntity
  8
0
  6
Continuous
 62
     8
370
    15
100
AcDbLine
 10
-831.2265851274
 20
-762.6316614734
 30
0.0
 11
-861.2265863195
 21
-762.6316614734
 31
0.0
  0
LINE
  5
3A3
330
1F
100
AcDbEntity
  8
0
  6
Continuous
 62
     8
370
    15
100
AcDbLine
 10
-831.2851615921
 20
-764.4902423309
 30
0.0
 11
-861.1680061296
 21
-764.4902423309
 31
0.0
  0
LINE
  5
3A4
330
1F
100
AcDbEntity
  8
0
  6
Continuous
 62
     8
370
    15
100
AcDbLine
 10
-859.2851624564
 20
-766.3730822788
 30
0.0
 11
-833.1680052653
 21
-766.3730822788
 31
0.0
  0
LINE
  5
3A5
330
1F
100
AcDbEntity
  8
0
  6
Continuous
 62
     8
370
    15
100
AcDbLine
 10
1340.773435615
 20
-762.6316614734
 30
0.0
 11
1310.7734642252
 21
-762.6316614734
 31
0.0
  0
LINE
  5
3A6
330
1F
100
AcDbEntity
  8
0
  6
Continuous
 62
     8
370
    15
100
AcDbLine
 10
1339.6292648539
 20
-764.3488191353
 30
0.0
 11
1340.773435615
 21
-764.3488191353
 31
0.0
  0
LINE
  5
3A7
330
1F
100
AcDbEntity
  8
0
  6
Continuous
 62
     8
370
    15
100
AcDbLine
 10
1310.7734642252
 20
-764.3488191353
 30
0.0
 11
1339.6292648539
 21
-764.3488191353
 31
0.0
  0
LINE
  5
3A8
330
1F
100
AcDbEntity
  8
0
  6
Continuous
 62
     8
370
    15
100
AcDbLine
 10
1340.7147846445
 20
-764.4902423309
 30
0.0
 11
1310.8318767771
 21
-764.4902423309
 31
0.0
  0
LINE
  5
3A9
330
1F
100
AcDbEntity
  8
0
  6
Continuous
 62
     8
370
    15
100
AcDbLine
 10
1312.7149067148
 20
-766.3730822788
 30
0.0
 11
1338.8319931254
 21
-766.3730822788
 31
0.0
  0
LINE
  5
3AA
330
1F
100
AcDbEntity
  8
0
  6
Continuous
 62
     8
370
    15
100
AcDbLine
 10
-97.22658775
 20
-725.8884531731
 30
0.0
 11
-127.2265591398
 21
-725.8884531731
 31
0.0
  0
LINE
  5
3AB
330
1F
100
AcDbEntity
  8
0
  6
Continuous
 62
     8
370
    15
100
AcDbLine
 10
-98.0457939878
 20
-726.6056102054
 30
0.0
 11
-97.22658775
 21
-726.6056102054
 31
0.0
  0
LINE
  5
3AC
330
1F
100
AcDbEntity
  8
0
  6
Continuous
 62
     8
370
    15
100
AcDbLine
 10
-127.2265591398
 20
-726.6056102054
 30
0.0
 11
-98.0457939878
 21
-726.6056102054
 31
0.0
  0
LINE
  5
3AD
330
1F
100
AcDbEntity
  8
0
  6
Continuous
 62
     8
370
    15
100
AcDbLine
 10
-98.1011667028
 20
-725.7470318401
 30
0.0
 11
-97.2851791159
 21
-725.7470318401
 31
0.0
  0
LINE
  5
3AE
330
1F
100
AcDbEntity
  8
0
  6
Continuous
 62
     8
370
    15
100
AcDbLine
 10
-127.1680273786
 20
-725.7470318401
 30
0.0
 11
-98.1011667028
 21
-725.7470318401
 31
0.0
  0
LINE
  5
3AF
330
1F
100
AcDbEntity
  8
0
  6
Continuous
 62
     8
370
    15
100
AcDbLine
 10
-99.8811998144
 20
-723.8641890982
 30
0.0
 11
-125.2851762548
 21
-723.8641890982
 31
0.0
  0
LINE
  5
3B0
330
1F
100
AcDbEntity
  8
0
  6
Continuous
 62
     8
370
    15
100
AcDbLine
 10
-99.8811998144
 20
-723.8641890982
 30
0.0
 11
-99.1680302397
 21
-723.8641890982
 31
0.0
  0
LINE
  5
3B1
330
1F
100
AcDbEntity
  8
0
  6
Continuous
 62
     8
370
    15
100
AcDbLine
 10
-797.2265832797
 20
-725.8884531731
 30
0.0
 11
-827.2265844718
 21
-725.8884531731
 31
0.0
  0
LINE
  5
3B2
330
1F
100
AcDbEntity
  8
0
  6
Continuous
 62
     8
370
    15
100
AcDbLine
 10
-798.1011920348
 20
-725.7470318401
 30
0.0
 11
-797.2851671949
 21
-725.7470318401
 31
0.0
  0
LINE
  5
3B3
330
1F
100
AcDbEntity
  8
0
  6
Continuous
 62
     8
370
    15
100
AcDbLine
 10
-827.1680080071
 20
-725.7470318401
 30
0.0
 11
-798.1011920348
 21
-725.7470318401
 31
0.0
  0
LINE
  5
3B4
330
1F
100
AcDbEntity
  8
0
  6
Continuous
 62
     8
370
    15
100
AcDbLine
 10
-798.0458118692
 20
-726.6056102054
 30
0.0
 11
-797.2265832797
 21
-726.6056102054
 31
0.0
  0
LINE
  5
3B5
330
1F
100
AcDbEntity
  8
0
  6
Continuous
 62
     8
370
    15
100
AcDbLine
 10
-827.2265844718
 20
-726.6056102054
 30
0.0
 11
-798.0458118692
 21
-726.6056102054
 31
0.0
  0
LINE
  5
3B6
330
1F
100
AcDbEntity
  8
0
  6
Continuous
 62
     8
370
    15
100
AcDbLine
 10
-799.8812027946
 20
-723.8641890982
 30
0.0
 11
-825.2851643339
 21
-723.8641890982
 31
0.0
  0
LINE
  5
3B7
330
1F
100
AcDbEntity
  8
0
  6
Continuous
 62
     8
370
    15
100
AcDbLine
 10
-799.1680034176
 20
-723.8641890982
 30
0.0
 11
-799.8812027946
 21
-723.8641890982
 31
0.0
  0
ENDSEC
  0
SECTION
  2
OBJECTS
  0
DICTIONARY
  5
C
330
0
100
AcDbDictionary
281
     1
  3
ACAD_GROUP
350
D
  3
ACAD_LAYOUT
350
1A
  3
ACAD_MLEADERSTYLE
350
3BA
  3
ACAD_MLINESTYLE
350
17
  3
ACAD_PLOTSETTINGS
350
19
  3
ACAD_PLOTSTYLENAME
350
E
  3
ACAD_VISUALSTYLE
350
2A
  3
AcDbVariableDictionary
350
3B8
  0
DICTIONARY
  5
D
102
{ACAD_REACTORS
330
C
102
}
330
C
100
AcDbDictionary
281
     1
  0
DICTIONARY
  5
1A
102
{ACAD_REACTORS
330
C
102
}
330
C
100
AcDbDictionary
281
     1
  3
Layout1
350
1E
  3
Layout2
350
26
  3
Model
350
22
  0
DICTIONARY
  5
3BA
102
{ACAD_REACTORS
330
C
102
}
330
C
100
AcDbDictionary
281
     1
  0
DICTIONARY
  5
17
102
{ACAD_REACTORS
330
C
102
}
330
C
100
AcDbDictionary
281
     1
  3
Standard
350
18
  0
DICTIONARY
  5
19
102
{ACAD_REACTORS
330
C
102
}
330
C
100
AcDbDictionary
281
     1
  0
ACDBDICTIONARYWDFLT
  5
E
102
{ACAD_REACTORS
330
C
102
}
330
C
100
AcDbDictionary
281
     1
  3
Normal
350
F
100
AcDbDictionaryWithDefault
340
F
  0
DICTIONARY
  5
2A
102
{ACAD_REACTORS
330
C
102
}
330
C
100
AcDbDictionary
281
     1
  3
2dWireframe
350
2F
  3
3D Hidden
350
31
  3
3dWireframe
350
30
  3
Basic
350
32
  3
Brighten
350
36
  3
ColorChange
350
3A
  3
Conceptual
350
34
  3
Dim
350
35
  3
Facepattern
350
39
  3
Flat
350
2B
  3
FlatWithEdges
350
2C
  3
Gouraud
350
2D
  3
GouraudWithEdges
350
2E
  3
Linepattern
350
38
  3
Realistic
350
33
  3
Thicken
350
37
  0
DICTIONARY
  5
3B8
102
{ACAD_REACTORS
330
C
102
}
330
C
100
AcDbDictionary
281
     1
  3
DIMASSOC
350
3BD
  3
HIDETEXT
350
3BE
  3
PSOLHEIGHT
350
3BC
  3
PSOLWIDTH
350
3BB
  0
LAYOUT
  5
1E
102
{ACAD_REACTORS
330
1A
102
}
330
1A
100
AcDbPlotSettings
  1

  2
none_device
  4

  6

 40
0.0
 41
0.0
 42
0.0
 43
0.0
 44
0.0
 45
0.0
 46
0.0
 47
0.0
 48
0.0
 49
0.0
140
0.0
141
0.0
142
1.0
143
1.0
 70
   688
 72
     0
 73
     0
 74
     5
  7

 75
    16
147
1.0
148
0.0
149
0.0
100
AcDbLayout
  1
Layout1
 70
     1
 71
     1
 10
0.0
 20
0.0
 11
420.0
 21
297.0
 12
0.0
 22
0.0
 32
0.0
 14
1.0000000000E+20
 24
1.0000000000E+20
 34
1.0000000000E+20
 15
-1.0000000000E+20
 25
-1.0000000000E+20
 35
-1.0000000000E+20
146
0.0
 13
0.0
 23
0.0
 33
0.0
 16
1.0
 26
0.0
 36
0.0
 17
0.0
 27
1.0
 37
0.0
 76
     0
330
1B
  0
LAYOUT
  5
26
102
{ACAD_REACTORS
330
1A
102
}
330
1A
100
AcDbPlotSettings
  1

  2
none_device
  4

  6

 40
0.0
 41
0.0
 42
0.0
 43
0.0
 44
0.0
 45
0.0
 46
0.0
 47
0.0
 48
0.0
 49
0.0
140
0.0
141
0.0
142
1.0
143
1.0
 70
   688
 72
     0
 73
     0
 74
     5
  7

 75
    16
147
1.0
148
0.0
149
0.0
100
AcDbLayout
  1
Layout2
 70
     1
 71
     2
 10
0.0
 20
0.0
 11
0.0
 21
0.0
 12
0.0
 22
0.0
 32
0.0
 14
0.0
 24
0.0
 34
0.0
 15
0.0
 25
0.0
 35
0.0
146
0.0
 13
0.0
 23
0.0
 33
0.0
 16
1.0
 26
0.0
 36
0.0
 17
0.0
 27
1.0
 37
0.0
 76
     0
330
23
  0
LAYOUT
  5
22
102
{ACAD_REACTORS
330
1A
102
}
330
1A
100
AcDbPlotSettings
  1

  2
none_device
  4

  6

 40
0.0
 41
0.0
 42
0.0
 43
0.0
 44
0.0
 45
0.0
 46
0.0
 47
0.0
 48
0.0
 49
0.0
140
0.0
141
0.0
142
1.0
143
1.0
 70
  1712
 72
     0
 73
     0
 74
     0
  7

 75
     0
147
1.0
148
0.0
149
0.0
100
AcDbLayout
  1
Model
 70
     1
 71
     0
 10
0.0
 20
0.0
 11
841.0
 21
594.0
 12
0.0
 22
0.0
 32
0.0
 14
0.0
 24
0.0
 34
0.0
 15
841.0
 25
594.0
 35
0.0
146
0.0
 13
0.0
 23
0.0
 33
0.0
 16
1.0
 26
0.0
 36
0.0
 17
0.0
 27
1.0
 37
0.0
 76
     0
330
1F
331
29
  0
MLINESTYLE
  5
18
102
{ACAD_REACTORS
330
17
102
}
330
17
100
AcDbMlineStyle
  2
Standard
 70
     0
  3

 62
   256
 51
90.0
 52
90.0
 71
     2
 49
0.5
 62
   256
  6
BYLAYER
 49
-0.5
 62
   256
  6
BYLAYER
  0
ACDBPLACEHOLDER
  5
F
102
{ACAD_REACTORS
330
E
102
}
330
E
  0
VISUALSTYLE
  5
2F
102
{ACAD_REACTORS
330
2A
102
}
330
2A
100
AcDbVisualStyle
  2
2dWireframe
 70
     4
 71
     0
 72
     2
 73
     0
 90
        0
 40
-0.6
 41
-30.0
 62
     5
 63
     7
 74
     1
 91
        4
 64
     7
 65
   257
 75
     1
175
     1
 42
1.0
 92
        0
 66
   257
 43
1.0
 76
     1
 77
     6
 78
     2
 67
     7
 79
     5
170
     0
171
     0
290
     0
174
     0
 93
        1
 44
0.0
173
     0
291
     0
 45
0.0
1001
ACAD
1000
AcDbSavedByObjectVersion
1070
     0
  0
VISUALSTYLE
  5
31
102
{ACAD_REACTORS
330
2A
102
}
330
2A
100
AcDbVisualStyle
  2
3D Hidden
 70
     6
 71
     1
 72
     2
 73
     2
 90
        0
 40
-0.6
 41
-30.0
 62
     5
 63
     7
 74
     2
 91
        2
 64
     7
 65
   257
 75
     2
175
     1
 42
40.0
 92
        0
 66
   257
 43
1.0
 76
     1
 77
     6
 78
     2
 67
     7
 79
     3
170
     0
171
     0
290
     0
174
     0
 93
        1
 44
0.0
173
     0
291
     0
 45
0.0
1001
ACAD
1000
AcDbSavedByObjectVersion
1070
     0
  0
VISUALSTYLE
  5
30
102
{ACAD_REACTORS
330
2A
102
}
330
2A
100
AcDbVisualStyle
  2
3dWireframe
 70
     5
 71
     0
 72
     2
 73
     0
 90
        0
 40
-0.6
 41
-30.0
 62
     5
 63
     7
 74
     1
 91
        4
 64
     7
 65
   257
 75
     1
175
     1
 42
1.0
 92
        0
 66
   257
 43
1.0
 76
     1
 77
     6
 78
     2
 67
     7
 79
     5
170
     0
171
     0
290
     0
174
     0
 93
        1
 44
0.0
173
     0
291
     0
 45
0.0
1001
ACAD
1000
AcDbSavedByObjectVersion
1070
     0
  0
VISUALSTYLE
  5
32
102
{ACAD_REACTORS
330
2A
102
}
330
2A
100
AcDbVisualStyle
  2
Basic
 70
     7
 71
     1
 72
     0
 73
     1
 90
        0
 40
-0.6
 41
-30.0
 62
     5
 63
     7
 74
     0
 91
        4
 64
     7
 65
   257
 75
     1
175
     1
 42
1.0
 92
        8
 66
     7
 43
1.0
 76
     1
 77
     6
 78
     2
 67
     7
 79
     5
170
     0
171
     0
290
     0
174
     0
 93
        1
 44
0.0
173
     0
291
     1
 45
0.0
1001
ACAD
1000
AcDbSavedByObjectVersion
1070
     0
  0
VISUALSTYLE
  5
36
102
{ACAD_REACTORS
330
2A
102
}
330
2A
100
AcDbVisualStyle
  2
Brighten
 70
    12
 71
     2
 72
     2
 73
     0
 90
        0
 40
-0.6
 41
-30.0
 62
     5
 63
     7
 74
     1
 91
        4
 64
     7
 65
   257
 75
     1
175
     1
 42
1.0
 92
        8
 66
     7
 43
1.0
 76
     1
 77
     6
 78
     2
 67
     7
 79
     5
170
     0
171
     0
290
     0
174
     0
 93
        1
 44
50.0
173
     0
291
     1
 45
0.0
1001
ACAD
1000
AcDbSavedByObjectVersion
1070
     0
  0
VISUALSTYLE
  5
3A
102
{ACAD_REACTORS
330
2A
102
}
330
2A
100
AcDbVisualStyle
  2
ColorChange
 70
    16
 71
     2
 72
     2
 73
     3
 90
        0
 40
-0.6
 41
-30.0
 62
     5
 63
     8
 74
     1
 91
        4
 64
     7
 65
   257
 75
     1
175
     1
 42
1.0
 92
        8
 66
     8
 43
1.0
 76
     1
 77
     6
 78
     2
 67
     7
 79
     5
170
     0
171
     0
290
     0
174
     0
 93
        1
 44
0.0
173
     0
291
     1
 45
0.0
1001
ACAD
1000
AcDbSavedByObjectVersion
1070
     0
  0
VISUALSTYLE
  5
34
102
{ACAD_REACTORS
330
2A
102
}
330
2A
100
AcDbVisualStyle
  2
Conceptual
 70
     9
 71
     3
 72
     2
 73
     0
 90
        0
 40
-0.6
 41
-30.0
 62
     5
 63
     7
 74
     2
 91
        2
 64
     7
 65
   257
 75
     1
175
     1
 42
40.0
 92
        8
 66
     7
 43
1.0
 76
     1
 77
     6
 78
     2
 67
     7
 79
     3
170
     0
171
     0
290
     0
174
     0
 93
        1
 44
0.0
173
     0
291
     0
 45
0.0
1001
ACAD
1000
AcDbSavedByObjectVersion
1070
     0
  0
VISUALSTYLE
  5
35
102
{ACAD_REACTORS
330
2A
102
}
330
2A
100
AcDbVisualStyle
  2
Dim
 70
    11
 71
     2
 72
     2
 73
     0
 90
        0
 40
-0.6
 41
-30.0
 62
     5
 63
     7
 74
     1
 91
        4
 64
     7
 65
   257
 75
     1
175
     1
 42
1.0
 92
        8
 66
     7
 43
1.0
 76
     1
 77
     6
 78
     2
 67
     7
 79
     5
170
     0
171
     0
290
     0
174
     0
 93
        1
 44
-50.0
173
     0
291
     1
 45
0.0
1001
ACAD
1000
AcDbSavedByObjectVersion
1070
     0
  0
VISUALSTYLE
  5
39
102
{ACAD_REACTORS
330
2A
102
}
330
2A
100
AcDbVisualStyle
  2
Facepattern
 70
    15
 71
     2
 72
     2
 73
     0
 90
        0
 40
-0.6
 41
-30.0
 62
     5
 63
     7
 74
     1
 91
        4
 64
     7
 65
   257
 75
     1
175
     1
 42
1.0
 92
        8
 66
     7
 43
1.0
 76
     1
 77
     6
 78
     2
 67
     7
 79
     5
170
     0
171
     0
290
     0
174
     0
 93
        1
 44
0.0
173
     0
291
     1
 45
0.0
1001
ACAD
1000
AcDbSavedByObjectVersion
1070
     0
  0
VISUALSTYLE
  5
2B
102
{ACAD_REACTORS
330
2A
102
}
330
2A
100
AcDbVisualStyle
  2
Flat
 70
     0
 71
     2
 72
     1
 73
     1
 90
        2
 40
-0.6
 41
30.0
 62
     5
 63
     7
 74
     0
 91
        4
 64
     7
 65
   257
 75
     1
175
     1
 42
1.0
 92
        8
 66
     7
 43
1.0
 76
     1
 77
     6
 78
     2
 67
     7
 79
     5
170
     0
171
     0
290
     0
174
     0
 93
       13
 44
0.0
173
     0
291
     1
 45
0.0
1001
ACAD
1000
AcDbSavedByObjectVersion
1070
     0
  0
VISUALSTYLE
  5
2C
102
{ACAD_REACTORS
330
2A
102
}
330
2A
100
AcDbVisualStyle
  2
FlatWithEdges
 70
     1
 71
     2
 72
     1
 73
     1
 90
        2
 40
-0.6
 41
30.0
 62
     5
 63
     7
 74
     1
 91
        4
 64
     7
 65
   257
 75
     1
175
     1
 42
1.0
 92
        0
 66
   257
 43
1.0
 76
     1
 77
     6
 78
     2
 67
     7
 79
     5
170
     0
171
     0
290
     0
174
     0
 93
       13
 44
0.0
173
     0
291
     1
 45
0.0
1001
ACAD
1000
AcDbSavedByObjectVersion
1070
     0
  0
VISUALSTYLE
  5
2D
102
{ACAD_REACTORS
330
2A
102
}
330
2A
100
AcDbVisualStyle
  2
Gouraud
 70
     2
 71
     2
 72
     2
 73
     1
 90
        2
 40
-0.6
 41
30.0
 62
     5
 63
     7
 74
     0
 91
        4
 64
     7
 65
   257
 75
     1
175
     1
 42
1.0
 92
        0
 66
     7
 43
1.0
 76
     1
 77
     6
 78
     2
 67
     7
 79
     5
170
     0
171
     0
290
     0
174
     0
 93
       13
 44
0.0
173
     0
291
     1
 45
0.0
1001
ACAD
1000
AcDbSavedByObjectVersion
1070
     0
  0
VISUALSTYLE
  5
2E
102
{ACAD_REACTORS
330
2A
102
}
330
2A
100
AcDbVisualStyle
  2
GouraudWithEdges
 70
     3
 71
     2
 72
     2
 73
     1
 90
        2
 40
-0.6
 41
30.0
 62
     5
 63
     7
 74
     1
 91
        4
 64
     7
 65
   257
 75
     1
175
     1
 42
1.0
 92
        0
 66
   257
 43
1.0
 76
     1
 77
     6
 78
     2
 67
     7
 79
     5
170
     0
171
     0
290
     0
174
     0
 93
       13
 44
0.0
173
     0
291
     1
 45
0.0
1001
ACAD
1000
AcDbSavedByObjectVersion
1070
     0
  0
VISUALSTYLE
  5
38
102
{ACAD_REACTORS
330
2A
102
}
330
2A
100
AcDbVisualStyle
  2
Linepattern
 70
    14
 71
     2
 72
     2
 73
     0
 90
        0
 40
-0.6
 41
-30.0
 62
     5
 63
     7
 74
     1
 91
        4
 64
     7
 65
   257
 75
     7
175
     7
 42
1.0
 92
        8
 66
     7
 43
1.0
 76
     1
 77
     6
 78
     2
 67
     7
 79
     5
170
     0
171
     0
290
     0
174
     0
 93
        1
 44
0.0
173
     0
291
     1
 45
0.0
1001
ACAD
1000
AcDbSavedByObjectVersion
1070
     0
  0
VISUALSTYLE
  5
33
102
{ACAD_REACTORS
330
2A
102
}
330
2A
100
AcDbVisualStyle
  2
Realistic
 70
     8
 71
     2
 72
     2
 73
     0
 90
        0
 40
-0.6
 41
-30.0
 62
     5
 63
     7
 74
     1
 91
        0
 64
     7
 65
   257
 75
     1
175
     1
 42
1.0
 92
        8
 66
     8
 43
1.0
 76
     1
 77
     6
 78
     2
 67
     7
 79
     5
170
     0
171
     0
290
     0
174
     0
 93
       13
 44
0.0
173
     0
291
     0
 45
0.0
1001
ACAD
1000
AcDbSavedByObjectVersion
1070
     0
  0
VISUALSTYLE
  5
37
102
{ACAD_REACTORS
330
2A
102
}
330
2A
100
AcDbVisualStyle
  2
Thicken
 70
    13
 71
     2
 72
     2
 73
     0
 90
        0
 40
-0.6
 41
-30.0
 62
     5
 63
     7
 74
     1
 91
        4
 64
     7
 65
   257
 75
     1
175
     1
 42
1.0
 92
       12
 66
     7
 43
1.0
 76
     1
 77
     6
 78
     2
 67
     7
 79
     5
170
     0
171
     0
290
     0
174
     0
 93
        1
 44
0.0
173
     0
291
     1
 45
0.0
1001
ACAD
1000
AcDbSavedByObjectVersion
1070
     0
  0
DICTIONARYVAR
  5
3BD
102
{ACAD_REACTORS
330
3B8
102
}
330
3B8
100
DictionaryVariables
280
     0
  1
2
  0
DICTIONARYVAR
  5
3BE
102
{ACAD_REACTORS
330
3B8
102
}
330
3B8
100
DictionaryVariables
280
     0
  1
1
  0
DICTIONARYVAR
  5
3BC
102
{ACAD_REACTORS
330
3B8
102
}
330
3B8
100
DictionaryVariables
280
     0
  1
80.000000
  0
DICTIONARYVAR
  5
3BB
102
{ACAD_REACTORS
330
3B8
102
}
330
3B8
100
DictionaryVariables
280
     0
  1
5.000000
  0
ENDSEC
  0
EOF
